Sponge Cola - Una Chords & Tabs

 

Una Chords & Tabs

Sponge Cola Chords & Tabs

Version: 1 Type: Chords 2 ratings
1 star 2 stars 3 stars 4 stars 5 stars
comments

Una Chords

   
Title:	Una
Artist:	Sponge Cola
Tabbed by:
	Marci "DaMars" San Diego

		08/06/05

~~U~N~A~~

Chords:(standard tuning)
B    |x24422|	B7   |x242xx|
Bb   |x13311|
[ Tab from: http://www.guitartabs.cc/tabs/s/sponge_cola/una_crd.html ]
Intro:(1st part-wala pang strum)
      (mabilis ung plucking)
    B
e|------6---6-------6---6-------6-------
B|----7---7---7---7---7---7---7---7-----
G|--8-----------8-----------8-----------
D|--------------------------------------
A|--------------------------------------
E|--------------------------------------
    Bb
e|------6---6-------6---6-------6-------
B|----6---6---6---6---6---6---6---6-----
G|--6-----------6-----------6-----------
D|--------------------------------------
A|--------------------------------------
E|--------------------------------------
    B
e|------6---6---6---7---7---9---9-------
B|----7---7---7---7---7---7---7---7-----
G|--8-----------------------------------
D|--------------------------------------
A|--------------------------------------
E|--------------------------------------
    Bb
e|------6---6-------7p6---------6-------
B|----6---6---6---6-----7p6---6---6-----
G|--6-----------6-----------6-----------
D|--------------------------------------
A|--------------------------------------
E|--------------------------------------

(2nd part-may strum na ng 2nd guitar)
(mabagal ung plucking)
    B                Bb
e|------6---6---6--------6---6---6------
B|----7---7---7---7----6---6---6---6----
G|--8----------------6------------------
D|--------------------------------------
A|--------------------------------------
E|--------------------------------------
    B                Bb
e|------6---7---9--------6---6---6------
B|----7---7---7---7----6---6---6---6----
G|--8----------------6------------------
D|--------------------------------------
A|--------------------------------------
E|--------------------------------------

Verse:(i-fill ung intro)
B           Bb
Muli namang umihip sa'kin
    B             Bb
ang hangin ng pag-iisa
B            Bb
Liwanag kang dagling sumilaw
   B        Bb
sa'king mga mata

Refrain:
B
Linilingon,
Bb
sinusundan,
B             Bb
dumadalas ang minsan
B
Ika'y naryan,
Bb
abot tanaw
B            Bb
kahit walang dahilan

Chorus:(B-C# Bb) 
Comments