Sponge Cola - Stones Throw Chords & Tabs

 

Stones Throw Chords & Tabs

Sponge Cola Chords & Tabs

Version: 3 Type: Tab 0 ratings
1 star 2 stars 3 stars 4 stars 5 stars
comments

Stones Throw Tab

C# Maj. Scale 'to
Medyo sablay pa rin eh! :)

E----------------------------------11----------------------------------|
B-14-14-13-11----------------13-14----14-13----------------------------|
G-------------------------------------------13-------------------------|
D----------------------------------------------------------------------|
A--------------11-9-8-6-8-9-------------------------------8------------|
E----------------------------------------------11--8-9-11---11-9-8-8h9-|
[ Tab from: http://www.guitartabs.cc/tabs/s/sponge_cola/stones_throw_tab_ver_3.html ]
E----------------------------------------------------------------------|
B-------------------14~-13~-11-----14-13----14-13----14/16-14-13-------|
G------------------------------13--------13-------13-------------13----|
D-------------8-10-----------------------------------------------------|
A------8-9-11----------------------------------------------------------|
E-9-11-----------------------------------------------------------------|

E-16-16-16-16-14-14-14-14-13-13-13-13-14-14-14-14------------------------|
B------------------------------------------------------------------------|
G------------------------------------------------------------------------|
D--------------------------------------------------(11~-10~-13~-10~-11~)-|
A------------------------------------------------------------------------|
E------------------------------------------------------------------------|

*notes in parentheses 'di ako sure kung diyan o octave higher dapat
kung gusto niyo, imbes na D-11-10-13-10-11, B-14-13-16-13-14 na lang w/
vibrato pa rin! :P
Comments