Sponge Cola - Lunes Chords & Tabs

 

Lunes Chords & Tabs

Sponge Cola Chords & Tabs

Version: 3 Type: Bass Tab 0 ratings
1 star 2 stars 3 stars 4 stars 5 stars
comments

Lunes Bass Tab

   
O, ayos na yung bass! Another tab by TaongGumigitara! 'di lang naka login
Maraming malulupet(fast-paced) na bass lines
dito kaya kailangan niyo rin sabayan yung track. Medyo sablay yung mga malulupet na bass 
Pakinggan mo yung bass, hindi yung song.
Example ng malulupet na bass line yung sa 'naghihintay na lang' at sa 'ayoko ng'.
Kaya kung mahirap, pagalitan niyo sila! (joke lang)
May special spacing para sa 'time intervals' para alam mo kung
gaano kabilis!. Paki-rate din 3 to 5 stars! May Chords pa 'yan ah!

Intro:
  FM7     FM7  (lead) Am      G7
G-------------------------------------|
D-------------------------------------|
A-8-------8---------------------------|
E----8-8-----8-8-7-6--5--5-5--3--3-3--|

Verse:
Same as Intro

Prechorus:
    ...kumakaripas naghihintay na lang...
  Bb         A           G   E    Dm7
G--------------------------------------------------------------|
D---------------------------------------------4---4-5---4-5-4--|
A----------------------------7-7-----5--7-5-7---7--------------|
E-6(16x)-----5-5-5-5-----3-3------5----------------------------|

  G7
G-----------------------------------------------------------|
D----------------2-4-5-3(break)-----------------------------|
A------2---2-3-5--------------------------------------------|
E-3-5----5--------------------------------------------------|
[ Tab from: http://www.guitartabs.cc/tabs/s/sponge_cola/lunes_btab_ver_3.html ]
Chorus:
  F          C                Am          G7
G---------------------------------------------------------|
D---------------------------------------------------------|
A--------------------------------------4---------5-2---2--|
E-1-1--3-5-6-8--8-8-8--8-8-8--5-5--5-7----3-3--3-----3----|
...Naninimtim...     (same except:      E-3-3-3-3-3-3-----| on G7)

Verse
Prechorus
Chorus

["Ayoko ng" part]
                                 ayoko ng                     Hindi sina-
  F                                      C/G
G-----------------------------------------------------------------------|
D------------------------------------------------------2----2-4--2-4-2--|
A---------0---0-1--0-1-3--1-3-1---------------3--5-3-5----5-------------|
E-1-3-1-3---3------------------------------3----------------------------|

sadya-ah! Hindi ko sinasadyaaaaH!
  Am                    G
G---------------------------------------------------|
D----------------------------------2----2-4--2-4-2--|
A-------------------------3--5-3-5----5-------------|
E-5-(16x)---------------3---------------------------|

Ad-lib:
  Bb              A               Dm7             C
G-----------------------------------------------------------------|
D-----------------------------------------------------------------|
A---------------------------------5-5-5-5-5-5-5-5-3-3-3-3-3-3-3-3-|(4x)
E-6-6-6-6-6-6-6-6-5-5-5-5-5-5-5-5---------------------------------|

Verse na hindi verse: Same as Intro
Prechorus:
Chorus:
["Ayoko ng" part]

End 'phew!'
Comments