Sponge Cola - Lunes Chords & Tabs

 

Lunes Chords & Tabs

Sponge Cola Chords & Tabs

Version: 2 Type: Bass Tab 0 ratings
1 star 2 stars 3 stars 4 stars 5 stars
comments

Lunes Bass Tab

SONG: LUNES
BAND: SPONGECOLA

Intro

G|----------------------------------------------|
D|---5---5---5---5------------------------------|
A|-3---3---3---3-----7---7----5----5------------|
E|-----------------5---5---3----3---------------|

G|----------------------------------------------|
D|---5---5---5---5------------------------------|
A|-3---3---3---3-----7---7----5----5------------|
E|-----------------5---5---3----3---------------|

Verse 1

G|----------------------------------------------|
D|---5---5---5---5------------------------------|
A|-3---3---3---3-----7----7---5---5-------------|
E|-----------------5----5---3---3---------------|

G|----------------------------------------------|
D|---5---5---5---5------------------------------|
A|-3---3---3---3-----7----7---5---5-------------|
E|-----------------5----5---3---3---------------|

Bumibilis...

G|----------------------------------------------|
D|----------------------------------------------|
A|-111111111111111------------5-5-5-5-5-5-5-5---|
E|-----------------5--5--5--5-------------------|

G|-------------------------------|
D|-------------------------------|
A|-------------------------------|
E|---3-3-3-3-3-3-3—mute 3--------|

Chorus

G|----------------------------------------------|
D|----------------------------------------------|
A|---------3-3-3-3------------------------------|
E|-1-1-1-1---------5-5-5-5---3-3-3-3------------|

G|----------------------------------------------|
D|----------------------------------------------|
A|---------3-3-3-3------------------------------|
E|-1-1-1-1---------5-5-5-5---3-3-3-3------------|


Verse 2

G|----------------------------------------------|
D|---5---5---5---5------------------------------|
A|-3---3---3---3-----7----7---5---5-------------|
E|-----------------5----5---3---3---------------|

G|----------------------------------------------|
D|---5---5---5---5------------------------------|
A|-3---3---3---3-----7----7---5---5-------------|
E|-----------------5----5---3---3---------------|

G|----------------------------------------------|
D|----------------------------------------------|
A|-111111111111111------------5-5-5-5-5-5-5-5---|
E|-----------------5--5--5--5-------------------|

G|-------------------------------|
D|-------------------------------|
A|-------------------------------|
E|---3-3-3-3-3-3-3—mute 3--------|


Chorus:

G|----------------------------------------------|
D|----------------------------------------------|
A|---------3-3-3-3------------------------------|
E|-1-1-1-1---------5-5-5-5---3-3-3-3------------|

G|----------------------------------------------|
D|----------------------------------------------|
A|---------3-3-3-3------------------------------|
E|-1-1-1-1---------5-5-5-5---3-3-3-3------------|

Ung part na "ayoko na" play the 1st fret on E string habang kinkanta ung "na" na word d2 
part na "ayoko na" gets? If not YM me gyani_08 or e-mail me blackniggaz05@yahoo.com


G|----------------------------------------------|
D|----------------------------------------------|
A|-----------------3-3-3-3----------------------|
E|-1-1-1-1-1-1-1-1----------5-5-5-5-------------|
[ Tab from: http://www.guitartabs.cc/tabs/s/sponge_cola/lunes_btab_ver_2.html ]
G|----------------------------------------------|
D|----------------------------------------------|
A|----------------------------------------------|
E|-1-1-1-1-1-1-1-1----5-5-5-5---3-3-3-3---------|
Guitar

G|----------------------------------------------|
D|----------------------------------------------|
A|--3-3-3-3-3-3—2-2-2-2—-7-7-7-7-7-7--5-5-5-5---|
E|----------------------------------------------|

G|----------------------------------------------|
D|----------------------------------------------|
A|--3-3-3-3-3-3—2-2-2-2—-7-7-7-7-7-7--5-5-5-5---|
E|----------------------------------------------|

With Solo ng Electric Lead / Guitar

G|----------------------------------------------|
D|----------------------------------------------|
A|--3-3-3-3-3-3—2-2-2-2—-7-7-7-7-7-7--5-5-5-5---|
E|----------------------------------------------|

G|----------------------------------------------|
D|----------------------------------------------|
A|--3-3-3-3-3-3—2-2-2-2—-7-7-7-7-7-7--5-5-5-5---|
E|---------------------------------------------3|

Guitar (parang inulit na intro)

G|----------------------------------------------|
D|---5---5---5---5------------------------------|
A|-3---3---3---3-----7----7---5---5-------------|
E|-----------------5----5---3---3---------------|

G|----------------------------------------------|
D|---5---5---5---5------------------------------|
A|-3---3---3---3-----7----7---5---5-------------|
E|-----------------5----5---3---3---------------|


Bumibilis...
G|----------------------------------------------|
D|----------------------------------------------|
A|-111111111111111------------5-5-5-5-5-5-5-5---|
E|-----------------5--5--5--5-------------------|

G|-------------------------------|
D|-------------------------------|
A|-------------------------------|
E|---3-3-3-3-3-3-3—-3------------|

Chorus


G|----------------------------------------------|
D|----------------------------------------------|
A|---------3-3-3-3------------------------------|
E|-1-1-1-1---------5-5-5-5---3-3-3-3------------|

G|----------------------------------------------|
D|----------------------------------------------|
A|---------3-3-3-3------------------------------|
E|-1-1-1-1---------5-5-5-5---3-3-3-3------------|

G|----------------------------------------------|
D|----------------------------------------------|
A|---------3-3-3-3------------------------------|
E|-1-1-1-1---------5-5-5-5---3-3-3-3------------|

G|----------------------------------------------|
D|----------------------------------------------|
A|---------3-3-3-3------------------------------|
E|-1-1-1-1---------5-5-5-5---3-3-3-3------------|


Ung part na "ayoko na" play the 1st fret on E string habang kinkanta ung "na" na word d2 
part na "ayoko na" gets? If not YM me gyani_08 or e-mail me blackniggaz05@yahoo.com


G|----------------------------------------------|
D|----------------------------------------------|
A|-----------------3-3-3-3----------------------|
E|-1-1-1-1-1-1-1-1----------5-5-5-5-------------|

G|----------------------------------------------|
D|----------------------------------------------|
A|-----------------3-3-3-3----------3 <- prolong|
E|-1-1-1-1-1-1-1-1---------5-5-5-5--------------|

THE END!! HABA NOH!!

Kung may mali e-mail me blackniggaz05@yahoo.com thnx paki rate po..
Comments