Sponge Cola - Klsp Chords & Tabs

 

Klsp Chords & Tabs

Sponge Cola Chords & Tabs

Version: 1 Type: Bass Tab 0 ratings
1 star 2 stars 3 stars 4 stars 5 stars
comments

Klsp Bass Tab

sponge cola
KLSP
bass tab

intro: ( 2x )
|-------------|-------------|-------------|---------------|
|-------------|-------------|-------------|-------------=-|
|-------------|-------------|-------------|---------------|
|-6-6-6-6-6-6-|-5-5-5-5-5-5-|-3-3-3-3-3-3-|-2-2-2--4-4-4--|

verse 1: ( 2x )
|-----------------|-----------------|         |---------------|
|-----------------|-----------------|         |---------------|
|-----------------|-----------------| 3x then |---------------| 
|-6-6-6-6-6-6-6-6-|-3-3-3-3-3-3-3-3-|         |-2-2-2--4-4-4--|

1st chorus: ( 1x )
|-------------|-------------|-------------|---------------|
|-------------|-------------|-------------|-------------=-|
|-------------|-------------|-------------|---------------| 
|-6-6-6-6-6-6-|-5-5-5-5-5-5-|-3-3-3-3-3-3-|-2-2-2--4-4-4--|

verse 2: ( 1x )
|-----------------|-----------------|         |---------------|
|-----------------|-----------------|         |---------------|
|-----------------|-----------------| 3x then |---------------| 
|-6-6-6-6-6-6-6-6-|-3-3-3-3-3-3-3-3-|         |-2-2-2--4-4-4--|

2nd chorus: ( 2x )
|-------------|-------------|-------------|---------------|
|-------------|-------------|-------------|-------------=-|
|-------------|-------------|-------------|---------------| 
|-6-6-6-6-6-6-|-5-5-5-5-5-5-|-3-3-3-3-3-3-|-2-2-2--4-4-4--|
[ Tab from: http://www.guitartabs.cc/tabs/s/sponge_cola/klsp_btab.html ]
bridge:
|-----------------|-----------------|-----------------|-----------------|
|-----------------|-----------------|-----------------|-----------------|
|-----------------|-----------------|-----------------|-----------------|
|-0-0-0-0-0-0-0-0-|-3-3-3-3-3-3-3-3-|-0-0-0-0-0-0-0-0-|-3-3-3-3-3-3-3-3-|

                                    |=========to the solo================|
|-----------------|-----------------|------------------------------------|
|-----------------|-----------------|------------------------------------|
|-1-1-1-1-1-1-1-1-|-3-3-3-3-3-3-3-3-|-0-0-0-0-0-0-0-0-0-0-0-0-0-0-0-0-0--|
|-----------------|-----------------|------------------------------------|
                                             
solo: ( 2x )
|-------------|-------------|-------------|---------------|
|-------------|-------------|-------------|-------------=-|
|-------------|-------------|-------------|---------------|
|-6-6-6-6-6-6-|-5-5-5-5-5-5-|-3-3-3-3-3-3-|-2-2-2--4-4-4--|

last chorus: ( 2x )
|-------------|-------------|-------------|---------------|
|-------------|-------------|-------------|-------------=-|
|-------------|-------------|-------------|---------------|
|-6-6-6-6-6-6-|-5-5-5-5-5-5-|-3-3-3-3-3-3-|-2-2-2--4-4-4--|

outro: ( 1x )
|-------------|-------------|-------------|---------------|
|-------------|-------------|-------------|-------------=-|
|-------------|-------------|-------------|---------------|
|-6-6-6-6-6-6-|-5-5-5-5-5-5-|-3-3-3-3-3-3-|-2-2-2--4-4-4--|
Comments