Sponge Cola - Kailangan Kita Chords & Tabs

 

Kailangan Kita Chords & Tabs

Sponge Cola Chords & Tabs

Version: 2 Type: Tab 0 ratings
1 star 2 stars 3 stars 4 stars 5 stars
comments

Kailangan Kita Tab

   
Sorry for any inaccurate notes...just got this BY EAR...but still, ENJOY!! ;)

Intro:
      G
Sana ay iyong naririnig
     Bm                     Em7
Pusong ikaw lang ang pinipintig
         C9~
Tanging ikaw lang ang ligaya

*Chord Pattern: G-Bm-Em7-C9 [Figure out the timing]
D#|---------------------------------------------|
G#|----------------------------------------8~---|
C#|--5---------------5----------------5---------|
F#|-----4h5-------------4h5-------7-------------|
A#|-----------3~-------------5/7----------------|
d#|---------------------------------------------|

Verse:
[Repeat Chord Pattern (*)] [Acoustic]
Parang buhay ko'y may taning
Tuwing ika'y nalalayo sa'king tabi
Laging tinatanong sa tuwina:

Ikaw ba'y makakapiling ko
Ngayong gabing walang kasinlamig
At muling magigisnan ko bukas?

Then,

G      G/B     Em7
Bawat nakaw na sandali
      C9
Lagi kong hinihiling
         D
Ikaw sa piling ko'y mananatili

Chorus 1:
G   Bm      Em7
Kailangan kita
            C
'Pagkat ang buhay ko ay kulang
       D
Kung ika'y mawawala
G   Bm      Em7
Kailangan kita
         C
Sana pagdilat ko
   D
Ika'y nandito na

Verse:
[Repeat Chord Pattern (*)]
Sa aking bisig
Ikaw ay yayakapin ko buong higpit
Pangakong hindi ka bibitiwan

Then,

[Distorded]
    G       Bm
Hindi magmamaliw
    Em7        C9
Pag-ibig ko't himig
     G         Bm        C
Ang puso ko'y 'yong inangkin

Bridge:
           B    C
Tadhanang kakaiba
     C#        D
Sa aki'y 'tinakda
       B       C
Magmula nang ika'y dumating
      Cm
Oh giliw

[Do Chorus Chords here]

Solo:
[ Tab from: http://www.guitartabs.cc/tabs/s/sponge_cola/kailangan_kita_tab_ver_2.html ]
[there's a PALM MUTE part here, insert here before the tab ;)]
D#|----------------------------------------------------|
G#|-------------------------------18-18/20-------------|
C#|--------------------------15~-------------19-19~----|
F#|---------------13h15p13-----------------------------|
A#|---------13h15--------------------------------------|
d#|---13h15--------------------------------------------|

D#|----------------------------------------------------|
G#|----------------------------------------------------|
C#|----17-15-17---19/20--19--17-15--17br--15-17-19~----|
F#|----------------------------------------------------|
A#|----------------------------------------------------|
d#|----------------------------------------------------|

   NOT SURE ABOUT THIS PART...FEELS LIKE MISSING A NOTE
D#|----------------------------------------------------|
G#|---------------------17-15--------------------------|
C#|----19-17-15---17-15---------15~~~------------------|
F#|----------------------------------------------------|
A#|----------------------------------------------------|
d#|----------------------------------------------------|

Back to Chorus [Still DISTORTED]

G   Bm      Em7
Kailangan kita
            C
'Pagkat ang buhay ko ay kulang
       D
Kung ika'y mawawala
G   Bm      Em7
Kailangan kita
             C
'Pagka't ang puso ko sayo'y
         D
Walang ililigaya pa    << insert SMALL RIFF HERE
G   Bm      Em7
Kailangan kita     
         C
Sana pagdilat ko'y
 D
Ika'y nandito na


[Back to ACOUSTIC]
G (single strum)
Iyo bang naririnig
  Bm (single strum)          Em7 (single strum)
Pusong ikaw lang ang pinipintig?


*SMALL RIFF: [Still not sure...sorry...]
D#|--------------------------------|
G#|--------------------------------|
C#|---------------------3~~~-------|
F#|-----------3h5p3----------------|
A#|-------3h5----------------------|
d#|---3h5--------------------------|


Credits:
http://tabs.ultimate-guitar.com/s/sponge_cola/kailangan_kita_crd.htm << by joemari5
Comments