Sponge Cola - Jillian Chords & Tabs

 

Jillian Chords & Tabs

Sponge Cola Chords & Tabs

Version: 1 Type: Tab 0 ratings
1 star 2 stars 3 stars 4 stars 5 stars
comments

Jillian Tab

   
Sponge Cola - Palabas - Jillian

tabbed by: jay c.

cooties

standard tuning
capo on 1st

soft strum

sad song

intro


e-------------------5-----3---2---------------------------------------|
b-------3-----3-------3-----3---3--------------------3----------------|
g-----2---2-----2-------2---------2------2-----2-------2---2-----2----|
d---0-------0-----0--------------------0---0-----0-------0---0-----0--|
a------------------------------------2-------2-----2-----------2------|
e---------------------------------------------------------------------|

e-------------------5-----3---2---------------------------------------|
b-------3-----3-------3-----3---3--------------------2----------------|
g-----2---2-----2-------2---------2------2-----2-------2---2-----2----|
d---0-------0-----0--------------------0---0-----0-------0---0-----0--|
a------------------------------------2-------2-----2-----------2------|
e---------------------------------------------------------------------|



verse
	Dsus2                               B/Dsus2
e-------------------5-----3---2---------------------------------------|
b-------3-----3-------3-----3---3--------------------3----------------|
g-----2---2-----2-------2---------2------2-----2-------2---2-----2----|
d---0-------0-----0--------------------0---0-----0-------0---0-----0--|
a------------------------------------2-------2-----2-----------2------|
e---------------------------------------------------------------------|
        Dsus2				 B/Dsus2	Asus4
e-------------------5-----3---2---------------------------------------|
b-------3-----3-------3-----3---3----------------------------3--------|
g-----2---2-----2-------2---------2------2-----2---2-----2-----2------|
d---0-------0-----0--------------------0---0-----0-----2---2-----2----|
a------------------------------------2-------2-------0----------------|
e---------------------------------------------------------------------|


guitar 1 do the pattern while guitar 2 do soft strum

	Dsus2   [xx0230]
	B/Dsus2 [x20230]   di ako sure sa B/Dsus2 basta ganun itsura
	Asus4   [x02230]

Refrain

B/Dsus2-Asus4-G/Dsus2-	
[ Tab from: http://www.guitartabs.cc/tabs/s/sponge_cola/jillian_tab.html ]
e---------------|
b---2h3-2-------|  
g---------2-2/4-|
d---------------|
a---------------|
e---------------|
B/Dsus2-Asus4-G/Dsus2-Asus4

Chorus	

	G/Dsus2-Asus4-F#/Dsus2-G/Dsus2

	G/Dsus2  [3x0230]  di rin ako sure sa G/Dsus2 na pangalan
	Asus4    [x02230]
	F#/Dsus2 [2x0230]


adlib


e---------------0--------------------------|
b---2-3-2-3-2-3-3----2-3-2-3-2-3-2-3-2-3---|
g---2-2-2-2-2-2-2----2-2-2-2-2-2-2-2-2-2---|
d---0-0-0-0-0-0-0----0-0-0-0-0-0-0-0-0-0---|
a--------------------2-2-2-2-2-2-2-2-2-2---|
e---3-3-3-3-3-3----------------------------|

e---------------0--------------------0-0---|
b---2-3-2-3-2-3-3----2-3-2-3-2-3-2-3-3-3---|
g---2-2-2-2-2-2-2----2-2-2-2-2-2-2-2-2-2---|
d---0-0-0-0-0-0-0----0-0-0-0-0-0-0-0-0-0---|
a--------------------2-2-2-2-2-2-2-2-------|
e---3-3-3-3-3-3----------------------------|


repeat verse without pattern

repeat refrain

repeat chorus 

  "i guess i'll always do"    
e---------------------------------0-------0------0----0---|
b---3-------------------3-----6---3---6---3---6---3---3---|
g---2-------------------2-----5---2---5---2---5---2---2---|
d---0-------------------2-----3---0---3---0---3---0---2---|
a-----------------------0-----------------------------0---|
e---3-----------------------------------------------------|



bridge

	"i try to shut them.."
	do verse patterns

repeat chorus

solo

e---------------9--9--9-10-10-9--7-2-2/3-2--7-5---5----|
b---2/3-333-3/10-10-10-----10-10-7-2-2/3-2------7---7--|
g------------------------------------------------------|
d------------------------------------------------------|
a------------------------------------------------------|
e------------------------------------------------------|

e-----------9----9--------14----12----10----9----10--10/12-12\10-10-10--|
b---7/10-10---10---10--10----10----10----10---10-----10/12-12\10-10-10--|
g-----------------------------------------------------------------------|
d-----------------------------------------------------------------------|
a-----------------------------------------------------------------------|
e-----------------------------------------------------------------------|

repeat chorus

-end of song-

.i.am.the.unforgiven.
Comments