Sponge Cola - Jeepney Chords & Tabs

 

Jeepney Chords & Tabs

Sponge Cola Chords & Tabs

Version: 2 Type: Tab 0 ratings
1 star 2 stars 3 stars 4 stars 5 stars
comments

Jeepney Tab

Title: Jeepney
Artist: Sponge Cola
Album: Palabas
Tabbed by: Sungao


Intro
 |----0--0--2-------------0--0--3----|
 |----3--3--3-------------3--3--3----|
 |----0--0--2-------------0--0-------|       X4
 |-----------------------------------|         last note let ring........
 |--------------------------------2--|
 |--------------------------------3--|

Verse
 Guitar 1
 |----2--2--0--0---------3--3--3--3---------------------------------------|
 |----3--3--3--3---------3--3--3--3---------------------------------------|
 |----2--2--2--2----------------------------------------------------------|       X4
 |------------------------------------------------------------------------|
 |------------------------2--2--2--2--------------------------------------|
 |------------------------3--3--3--3--------------------------------------|
 Guitar 2
 |----5--5--5--5---------3--3--3--3--------------------------------------|
 |----7--7--5--5---------3--3--3--3--------------------------------------|
 |----7--7--7--7---------4--4--4--4--------------------------------------|     X4
 |----7--7--7--7---------5--5--5--5--------------------------------------|
 |----5--5--5--5---------5--5--5--5--------------------------------------|
 |----5--5--5--5---------3--3--3--3--------------------------------------|

Refrain
 Guitar 1
 |----3--3--3--3-----------------------------------------------------------|
 |----3--3--3--3----------2--2--2--2---------------------------------------|
 |--------------------------2--2--2--2-------------------------------------|    X4
 |--------------------------2--2--2--2-------------------------------------|
 |----2--2--2--2-----------------------------------------------------------|
 |----3--3--3--3-----------------------------------------------------------|
 Guitar 2
 |----------------------------------------------------------------------|
 |----------------------------------------------------------------------|
 |----------------------------------------------------------------------|    X4
 |----5--5--5--5--5--5--5--5--7--7--7--7--7--7--7--7--------------------|
 |----5--5--5--5--5--5--5--5--7--7--7--7--7--7--7--7--------------------|
 |----3--3--3--3--3--3--3--3--5--5--5--5--5--5--5--5--------------------|

Chorus
 Guitar 1
 |----5--5--5--5----5--5--5--5-------------------3--3--3--3----------------|
 |----7--7--5--5----5--5--5--5-------------------3--3--3--3----------------|
 |----7--7--7--7----6--6--6--6-------------------4--4--4--4----------------|    X2
 |----7--7--7--7----7--7--7--7----2--2--2--2----5--5--5--5-----------------|
 |----5--5--5--5----7--7--7--7----2--2--2--2----5--5--5--5-----------------|
 |----5--5--5--5----5--5--5--5----0--0--0--0----3--3--3--3-----------------|
 Guitar 2
 |------------------------------------------------------------------------|
 |------------------------------------------------------------------------|
 |----7--7--7--7----------------------------------------------------------|
 |----7--7--7--7----7--7--7--7-----2--2--2--2----5--5--5--5---------------|   X2
 |----5--5--5--5----7--7--7--7-----2--2--2--2----5--5--5--5---------------|
 |-------------------5--5--5--5-----0--0--0--0----3--3--3--3--------------|
[ Tab from: http://www.guitartabs.cc/tabs/s/sponge_cola/jeepney_tab_ver_2.html ]
 Interlude
 Guitar 1
 |---2--2--0--0-----3--3--3--3--------------------------------------------|
 |---3--3--3--3-----3--3--3--3--------------------------------------------|
 |---2--2--2--2-----------------------------------------------------------|   X2
 |------------------------------------------------------------------------|
 |--------------------2--2--2--2------------------------------------------|
 |--------------------3--3--3--3------------------------------------------|
 Guitar 2
 |--------------------------------------------0---------------------------|
 |-----------3-----2-h-3-----3---------3--------3------3------------------|
 |--------2-----2----------2---------2----2---------2---------------------| X2
 |----0----------------------------0--------------------------------------|
 |------------------------------------------------------------------------|
 |------------------------------------------------------------------------|

Verse X2
Refrain
 Guitar 2
 |----------------------------------------------------------------------------|
 |----------------------------------------------------------------------------|
 |------------------7-h-9--7------7-b~~~~~~-----------------------------------|
 |------7--7-h-9--------------9-----------------------------------------------|
 |----------------------------------------------------------------------------|
 |----------------------------------------------------------------------------|
Chorus
Interlude X2

Bridge

 |----3-----------------------3---------------------------------------------|
 |----3------------2----------3------------2--2--2--2-----------------------|
 |-----------------2------------------------2--2--2--2----------------------|
 |-----------------2------------------------2--2--2--2----------------------|
 |----2-----------------------2---------------------------------------------|
 |----3-----------------------3---------------------------------------------|
  ....ikaw              ay          lumayo na         lumayo na....

 Chorus X2

Ending
 Guitar 2
 |--------------------------------------------0------------------------------|
 |-----------3-----2-h-3-----3---------3--------3------3---------------------|
 |--------2-----2----------2---------2----2---------2------------------------|
 |----0----------------------------0-----------------------------------------|
 |---------------------------------------------------------------------------|
 |---------------------------------------------------------------------------|

Lyrics

 bumaba ako sa jeepney
 kung saan tayo nagkatabi
 magkahalik ang pisngi nating dalawa
 nating dalawa

 panyo mo sa aking bulsa
 ang amoy mo ay naroroon pa rin
 tawa nating humahalay
 sa init nating dalawa

 subalit ngayon wala na...
 ikaw ay lumayo na...

 naaalala ko ang mga gabing nakahiga sa ilalim ng kalawakan
 naaalala ko ang mga gabing magkatabi sa ulan

 kulay ng yong mga ngiti
 at tikwas ng iyong buhok
 ang lambot ng iyong labi
 ng iyong labi

 kahit anino mo sa malayo
 ay nais masulyapan
 upang mapawi
 ang lamig


APPROVED BY: Danstone
sa mga kukuha ng chords na to salamat sa girlfriend ko..
at  kung medyo mali pgdasal nyo nlng ky papalord
thats good..
ROCK BE W/YOU
ROCK IN PEACE OUT

All Rigths Reserved 2004@Excreta.com
Comments