Sponge Cola - Gemini Chords & Tabs

 

Gemini Chords & Tabs

Sponge Cola Chords & Tabs

Version: 1 Type: Tab 1 rating
1 star 2 stars 3 stars 4 stars 5 stars
comments

Gemini Tab

   
 Song Name: Gemini
Performed By: Sponge Cola
   Tabbed By: Ralph De Guzman
              15. Yrs. Old
              Colegio San Agustin - Southwoods
              Third Year Student
	      PressToPlay 2005-2006 Lead Guitarist

Fave Song Ko Talaga To... As In... Spongecola RuleZzZz Talaga...
Madali Lang SYa Sabayan PAg May Cd Ka... Lalo Na Ung Remastered Version Nila...
Geh Poh... RATE NYO HA??!?!!?!?!


tuning: Half Step Down

Verse 1:
Effects: Delay

Come A Little Closer...
eb|----------------2------|\
Bb|-------3----------3----| \
Gb|----0----0----0--------|  \2 times mula sa intro
Db|-----------------------|  /
Ab|--3---------3----------| / 
Eb|-----------------------|/


Flicker In Flight...                       
eb|------------------|
Bb|-------3-----3----|
Gb|-----0-----0------|
Db|------------------|
Ab|------------------|
Eb|---2-----3--------|



We'll Have About An Inch Space...
eb|----------------2------|\
Bb|-------3----------3----| \
Gb|----0----0----0--------|  \2 times ulit
Db|-----------------------|  /
Ab|--3---------3----------| /
Eb|-----------------------|/



But I'm Here, I can...
eb|------------------|\
Bb|-------3-----3----| \
Gb|-----0-----0------|  \4 times naman
Db|------------------|  /     dito
Ab|------------------| /
Eb|---2-----3--------|/


Pre-Chorus:
Effects: Delay

Breath Out...
Eb|--------------------------------------|
Bb|------1--------1--------1--------3----|
Gb|----0---0----0---0----0---0----0---0--|
Db|-----------------------------0--------|
Ab|--0--------2--------3-----------------|
Db|--------------------------------------|



Chorus 1:
Effects: Clean, Digital Delay Or Reverb (mas Maganda Kung Delay Para Mas Kuhang Kuha...
Meron Nito Ung Zoom 505II Pataas...)

Let Me Know If...                    (Reverse Strum)
Eb|-----------3----------------3-----------3-----------------0---------------------------|
Bb|-------3-------3--------3-------3-------3-------------3-------3-----------------------|
Gb|-----0---0---0--------0---0---0---------0-----------0---0---0-------------------------|
Db|----------------------------------------x---------------------------------------------|
Ab|----------------------------------------2--------3------------------------------------|
Db|---3----------------2-------------------0---------------------------------------------|


Let Me Know If Dreams...      
Eb|-----------3----------------3--------------0-----------------0------------------------|
Bb|-------3-------3--------3-------3-------3------3---------3-------3--------------------|
Gb|-----0---0---0--------0---0---0-------0---0--0---------0---0---0----------------------|
Db|--------------------------------------------------------------------------------------|
Ab|-----------------------------------2-----------------3--------------------------------|
Db|---3----------------2-----------------------------------------------------------------|


And I Feel It....                   
Eb|--------------------------------------------------------------------------------------|
Bb|------1---------1---------1--------3----------0--------0-------0--------0-------------|
Gb|----0---0-----0---0-----0---0----0---0------0---0----0---0---0---0----0---0-----------|
Db|-------------------------------0----------2--------2--------2-------2-----------------|
Ab|--0---------2---------3---------------------------------------------------------------|
Db|--------------------------------------------------------------------------------------|
   

And I Feel You...
Eb|------------------------------------------------------------3--2----------------------|
Bb|------1---------1---------1--------3---------3--------3-----3--3----------------------|
Gb|----0---0-----0---0-----0---0----0---0-----0---0----0---0-----------------------------|
Db|-----------------------------------------0--------0-----------------------------------|
Ab|--0---------2---------3---------3-----------------------------------------------------|
Db|--------------------------------------------------------------------------------------|


Verse II:
[ Tab from: http://www.guitartabs.cc/tabs/s/sponge_cola/gemini_tab.html ]
Effect: Clean Delay
The Vacuous...
eb|----------------2------|\
Bb|-------3----------3----| \
Gb|----0----0----0--------|  \4 Times Mula Dun Sa Pasok Pagkatapos Ng Chorus
Db|-----------------------|  /
Ab|--3---------3----------| / 
Eb|-----------------------|/  
                           
Effect: Distortion Or Overdrive (Mas Kuha PAg Distortion Na Maraming Gain)
Steps Aside To...
eb|-------------------------------------------|
Bb|-------------------------------------------|
Gb|-------------------------------------------|
Db|-----4-4444-5---------7----(repeat riff2x)-|
Ab|-----4-4444-5---------7--------------------|
Db|-----2-2222-3---------5--------------------|

Effect: Clean Delay
The Moon On...
eb|----------------2------|\
Bb|-------3----------3----| \
Gb|----0----0----0--------|  \4 Times
Db|-----------------------|  /
Ab|--3---------3----------| / 
Eb|-----------------------|/

Effect: Distortion Or Overdrive (Mas Kuha PAg Distortion Na Maraming Gain)
Seemingly Veiled....
eb|-------------------------------------------|
Bb|-------------------------------------------|
Gb|-------------------------------------------|
Db|-----4-4444-5---------7----(repeat riff4x)-|
Ab|-----4-4444-5---------7--------------------|
Db|-----2-2222-3---------5--------------------|
 
Pre-Chorus:
Effect: Distortion Or Overdrive (Mas Kuha PAg Distortion Na Maraming Gain)
Same Star...           
eb|-----------------|
Bb|-----------------|
Gb|-------4--5--7---|
Db|----7--4--5--7---|
Ab|----7--2--3--5---|
Db|----5------------|


Chorus:
Effect: Clean, No Reverb ( Kung Pwede, Gumamit Kayo Ng Classical Guitar[nylon] dito... Kuhang Kuha... 
Lalo Na Kung Montana Or Fernando Ung Gitara)

Let Me Know...(strum)
eb|----------------------|\
Bb|---3--3--3--3---------| \
Gb|---0--0--0--0---------|  \2 Times
Db|---0--0--0--0---------|  /
Ab|---0--0--2--3---------| /
Db|---3--2--0------------|/

Effect: Overdrive Or Distortion
And I Feel It...
eb|--------------------------------------------------------------------------------------|
Bb|--------------------------------------------------------------------------------------|
Gb|----------4-4444--5-5555--7-7777--9-9999--11-11111111--12-12121212--------------------|
Db|--7-7777--4-4444--5-5555—-7-7777--9-9999--11-11111111--12-12121212--------------------|
Ab|--7-7777--2-2222--3-3333--5-5555--7-7777--9--9-9-9-9---10-10101010--------------------|
Db|--5-5555------------------------------------------------------------------------------|
   						     
						     (Strum Niyo To Ng Strum)   
                                                                 v
eb|--------------------------------------------------------------------|
Bb|--------------------------------------------------------------------|
Gb|--11-11111111----------4-4444--5-5555--7-7777--7-7777--7-7777-7-----|
Db|--11-11111111--7-7777--4-4444--5-5555--7-7777--7-7777--7-7777-7-----|
Ab|--9--9-9-9-9---7-7777--2-2222--3-3333--5-5555--5-5555--5-5555-5-----|
Db|---------------5-5555-----------------------------------------------|
        
Effect:Distortion
Bridge:           

oohh... (guitar 1)      guitar 2(classical or clean effects)
eb|-----3---3---3---0--|-----0-------0--------0------0--------0------0-------0------0---|
Bb|-----3---3---3---3--|----3--3----3--3-----3--3---3--3-----3--3---3--0----3--3---3--3-|
Gb|-----0---2---2---2--|---0--0----0--0-----0--0---0--0-----0--0---0--3----0--0---0--0--|
Db|-----0---0---x---0--|----------------------------------------------------------------|
Ab|-----3---2---1---0--|--3-------3--------2------2--------1------1-------0------0------|
Db|--------------------|----------------------------------------------------------------|


(sabay Nyo To Sa Chords Ng Chorus 2)
Fade Out:(classical guitar) repeat till song ends
eb|---2/3--3/5--5/7--5---2/3--3/5-8-5-3-2---2/3-3-2-3--2/3-3-3/5-7s5-5s3-3s2-------------|
Bb|---2/3--3/5--5/7--5---2/3--3/5-8-5-3-2---2/3-3----3-2/3-3-3/5-7s5-5s3-3s2-------------|
Gb|--------------------------------------------------------------------------------------|
Db|--------------------------------------------------------------------------------------|
Ab|--------------------------------------------------------------------------------------|
Db|--------------------------------------------------------------------------------------|       
                     
eb|---3-5-7-8--8-7-8-8/10-10-8-7-8-7-5-3-2-3-3/5-3-2---2/3-3-2-3---|
Bb|---3-5-7-8--8-7-8-8/10-10-8-7-8-7-5-3-2-3-3/5-3-2------------2--|
Gb|----------------------------------------------------------------|
Db|----------------------------------------------------------------|
Ab|----------------------------------------------------------------|
Db|----------------------------------------------------------------|


eb|--2/3-3-2-3-5-7-7-5-3-3h5-3-2-3--|
Bb|---------------------------------|
Gb|---------------------------------|
Db|---------------------------------|
Ab|---------------------------------|
Db|---------------------------------|



| /  slide up
| s  slide down
| h  hammer-on
| p  pull-off
| ~  vibrato
| +  harmonic
| x  Mute note
===============================================================================
AYAN!!! NATAPOZ KO NA!!! VINCENT, ETO NA!!
This song is for all of the studes of csa southwoods!!!
especially kay axel, dezzie, gio, enzo, aren, karen, Gerard, Jenna, Oh, Nikki, Mhikel etc...
in short...
Lahat Ng 3rd. year!!!!
rate nyo poh!!!
Comments