Sponge Cola - Dragonfly Chords & Tabs

 

Dragonfly Chords & Tabs

Sponge Cola Chords & Tabs

Version: 4 Type: Tab 0 ratings
1 star 2 stars 3 stars 4 stars 5 stars
comments

Dragonfly Tab

   
submitted by: mark caisido
email:markbaby1707@yahoo.com

mga 95%tama to..try nyo muna....paki rate na lang...cool tong song na to...pag may
suggestion email nyo na lang me...enjoy!!!kamuzta nga pala kay zaimond...hindi ko pa
sigurado ung chords dun sa dulo...edit nyo na lang pag may mali...pero ung mga tabs
tama lahat yan...don't forget to rate this...invite nyo dn me friendster

Intro: C - Am - F - G

e-----------15---------------------------|
B--------13----13-12h13-12-10------------|
G-----12----------------------9----------|
D--------------------------------9h10----|
A----------------------------------------|
E-5\2------------------------------------|

e----------------------------------------|
B----------------------------------------|
G----------------12-10-9-10-9------------|
D-10/12-10-9-10--------------------------|
A----------------------------------------|
E----------------------------------------|

e-----------15---------------------------|
B--------13----13-12h13-12-10------------|
G-----12----------------------9----------|
D--------------------------------9h10----|
A----------------------------------------|
E----------------------------------------|

e----------------------------------------|
B----------------------------------------|
G----------------10/12-10-9-9h10-9-------|
D-10/12-10-9-10--------------------9-10--|
A----------------------------------------|
E----------------------------------------|

VERSE I:

C
Maybe I'm a little addicted

Am
Maybe I just Can't get out of this

F                                G
Maybe it is just too soon to say


VERSE II:

C
I've seen you blow right past my window

Am                              F
You flew away and I was left inside

             G
Without a clue

 

REFRAIN:

F                   G           C     Bm         Am
    But If you think that I am too stoned to write

                        F     G
    Don't think twice

e----------------------------------------|
B----------------------------------------|
G----------------------------------------|
D--9-10-12-13b-10------------------------|
A----------------------------------------|
E----------------------------------------|

[ Tab from: http://www.guitartabs.cc/tabs/s/sponge_cola/dragonfly_tab_ver_4.html ]
CHORUS:

C
Free your mind

Am
Don't let me down

F                                 G
We'll find a way to make it go away (Repeat)

F                                 G
We'll find a way to make it go away

                   (Intro Chords)
I'll make it go away


nabago lang ng konti
e---------15-----------------------------|
B------13----13-12h13-12-10--------------|
G---12----------------------9------------|
D------------------------------10-9-10-12|
A----------------------------------------|
E----------------------------------------|

e----------------------------------------|
B----------------------------------------|
G----------------10/12-10-9-9h10-9-------|
D-10/12-10-9-10--------------------9-10--|
A----------------------------------------|
E----------------------------------------|

VERSE III: (Verse Chords)
I went ahead without direction
A form of semi-self-mutilation
Dragonfly collides with truth


VERSE IV: (Verse Chords)
Why can't you see me like I see you
Can't you feel me like I feel you
Can't you be with me tonight

 
(Refrain)
nabago lang nang konti!!!
e----------------------------------------|
B----------------------------------------|
G----------------------------------------|
D--9-10-12-13b-10-9-10-------------------|
A----------------------------------------|
E----------------------------------------|

(Chorus)

solo:

e----------------------------------------|
B----------------------------------------|
G-------------12-------------12-------12-|
D-13-12-10-10---10-10-10h12-----10h12----|
A----------------------------------------|
E----------------------------------------|

e----------------------------------------|
B---------------13-----------------------|
G------------------14-12-----------------|
D-14-12--12-10-----------14-10h12-10-12--|
A------12--------------------------------|
E----------------------------------------|

e---------------------------------11b-11b|
B----------------------------------------|
G----------------------------------------|
D-10--10h12-13-10h12-13-10h12-13---------|
A----------------------------------------|
E----------------------------------------|

dito sa part na to tataas na yung chords
D - G#m - G - A
(Chorus)

OUTRO: 
G
I'll make it go away
D
[my dragonfly]
Comments