Sponge Cola - Dragonfly Chords & Tabs

 

Dragonfly Chords & Tabs

Sponge Cola Chords & Tabs

Version: 2 Type: Tab 0 ratings
1 star 2 stars 3 stars 4 stars 5 stars
comments

Dragonfly Tab

January 31, 2005
Song:Dragonfly
By:Sponge Cola (Astig kayo!Idol Yael!)
Tabbed by: Kevin Catbagan, TaongGumigitara in UG
This is my first tab, please rate this, but I'm 90% sure of it.

(Intro)
e-----------13----------------------------------------------I
B--------10----10-11-10-------------------------------------I
G-10/12-----------------10-9-------------------12-10-9-10-9-I
D----------------------------9-10-12-10-9-9/10--------------I
A-----------------------------------------------------------I
E-----------------------------------------------------------I

e------------13------------------------------I
B---------10----15-13-15-10-11-10------------I
G-9h10/12-------------------------10-12-10-9-I
D--------------------------------------------I
A--------------------------------------------I
E--------------------------------------------I
[ Tab from: http://www.guitartabs.cc/tabs/s/sponge_cola/dragonfly_tab_ver_2.html ]
e---------------------------------------------I
B---------------------------------------------I
G------------------------12-10-9-9/10-9-------I
D-9-10-12-10-9-9/10-9-10----------------10-12-I
A---------------------------------------------I
E---------------------------------------------I



                                                       /use 1st&3rd fin-\
(Intro of 2nd Verse)                                  /gers of left hand \
e----------13--17-18-17---------------------------------------------10----I
B-------10--------------18-17-------------------------------13---------11-I
G-10/12-----------------------16-17-19-17-16-16/17-16-12-10----9----------I
D----------------------------------------------------------------12-------I
A-------------------------------------------------------------------------I
E-------------------------------------------------------------------------I

*the intro is actually the guitar accompaniment to the song's
chorus, so pwede niyong itugtog kasabay nung chorus, astig!
Comments