Sponge Cola - Dragonfly Chords & Tabs

 

Dragonfly Chords & Tabs

Sponge Cola Chords & Tabs

Version: 1 Type: Tab 0 ratings
1 star 2 stars 3 stars 4 stars 5 stars
comments

Dragonfly Tab

Elow!!! Hahaha.. First tab ko 'to... Kaya.. send kayo ng comments and suggestions sa
email add ko: jowy_blight015@yahoo.com :)
pero pakiusap lang ah, maging mabait kayo sa mga comments niyo! Kung mali mali man yun
tab na 'to,wag kayo magalit sakin.. hehe.. :)kung may mali dito, itama niyo na lang
para masaya!!! haha.. sige! Uhm...  Add niyo din ako sa friendster and sa YM!!! Thanks!

Intro

e---------------------------|
B------10-------------------|
G----7-------6--7--6--4-----|
D--5---------------------4--|
A---------------------------|
E---------------------------|
[ Tab from: http://www.guitartabs.cc/tabs/s/sponge_cola/dragonfly_tab.html ]
e----------------------------------------|
B--6--7--9--7--6--7-------8--6--5--6--5--|
G----------------------------------------|
D----------------------------------------|
A----------------------------------------|
E----------------------------------------|

e----------------------------|
B------10--------------------|
G----7------6h7p6--4h6p4--3--|
D--5-----------------------4-|
A----------------------------|
E----------------------------|

e---------------------------|
B---10--8--7--8--7----------|
G------------------7--------|
D---------------------------|
A---------------------------|
E---------------------------|

Hehe.. Sana tama yun ginawa ko..
Ei, don't forget to add me in your YM list and Friendster. Thanks again!
Arigatou!!! :)
_____________________________________________________________________________
Comments