Sponge Cola - Dragonfly Chords & Tabs

 

Dragonfly Chords & Tabs

Sponge Cola Chords & Tabs

Version: 1 Type: Bass Tab

Dragonfly Bass Tab

SONG:DRAGONFLY
ARTIST:SPONGE COLA
TABBED by: TURATERISTICS@YAHOO.COM (CHRISTER)

		Second tablature ko to...hi nga pala sa girlfriend 
        ko miss leizen dela resma ilove you po ;) thanks pala kay 
        becky diaz sa pagmulat sakin ng kantang to..hehe ok pla
	sya...sa gumawa ng bass ko si mang esting na taga guagua 
        pampanga...hello nga pala sa
	mga pinsan kong astig pa sa astig...kay ate marie,,,chaka sa  
        inyo....rate nyo po ah?
				mabuhay ang OPM!!!


INTRO

G|-------------------------------------------------------]
D|-----------------------------------------5---5---------]
A|--3--333--------5-7-8------8-7-5---------------5-3-----]   2x
E|----------5-5-7--------1-1-------7--3--3---3-----------]


VERSE I and II

G|----------------------------------]
D|----------------------------------]
A|--3--333--------------------------]   2x
E|----------5-555--1-111--3-333-----]

[ Tab from: http://www.guitartabs.cc/tabs/s/sponge_cola/dragonfly_btab.html ]
PRE - CHORUS

G|-----------------------------------------]
D|-----------------------------------------]
A|------------------33-22-0000-------------]   (BREAK)
E|--1--111--3--333--------------1--1/3-----]


CHORUS

G|-----------------------------------------------]
D|---------------------------------5---5---------]
A|--------5-7-8------8-7-5---------------5-3-----]
E|--5-5-7--------1-1-------7--3--3---3-----------]

G|------------------------------------------------------------------]
D|-----------------------------------------5---5--------------------]
A|--3--333--------5-7-8------8-7-5---------------5------------------]
E|----------5-5-7--------1-1-------7--3--3---3------1(BREAK)--1/3---]


INTRO
VERSE II
PRE - CHORUS
CHORUS
ADLIB (SAME PATTERN AS THE INTRO)
(AFTER THE INTRO TATAAS NG ISANG KEY)

OUTRO
..my dragonfly...

G|--------------]
D|--------------]
A|--5-5---------] (TILL FADE)
E|--------3-3---]