Sponge Cola - Closure Chords & Tabs

 

Closure Chords & Tabs

Sponge Cola Chords & Tabs

Version: 2 Type: Tab 0 ratings
1 star 2 stars 3 stars 4 stars 5 stars
comments

Closure Tab

tuning: standard
[ Tab from: http://www.guitartabs.cc/tabs/s/sponge_cola/closure_tab_ver_2.html ]
inro/verse/chorus:paminawa lang ang kanta para sa strumming
e:--------------------------------------------------------------------|
b:--------------------------------------------------------------------|
g:--------------------------------------------------------------------|
d:-x-x-x-x-4-4-4-4-4-4-4-4--6-6-6-6-6-6-6-6---------------------------|
a:-x-x-x-x-4-4-4-4-4-4-4-4--6-6-6-6-6-6-6-6---10-10-10-10-10-10-10-10-|
e:-x-x-x-x-2-2-2-2-2-2-2-2--4-4-4-4-4-4-4-4----8--8--8--8--8--8--8--8-|


  -----------------|
  -----------------|
  -----------------|
  -----------------|
  -8-8-8-8-8-8-8-8-|
  -6-6-6-6-6-6-6-6-|

and that's it...puuuuuuuuuuuuuugi! anthony salva...
Comments