Sponge Cola - Closure Chords & Tabs

 

Closure Chords & Tabs

Sponge Cola Chords & Tabs

Version: 1 Type: Tab 0 ratings
1 star 2 stars 3 stars 4 stars 5 stars
comments

Closure Tab

   
-------------------------------------------------------------------------------
			     SONG NAME - Band Name
-------------------------------------------------------------------------------
Tabbed by: marc levir "elpogi" sarmiento BSEE3-B,TUP Manila 2005
Email: marclevirsarmiento2003@yahoo.com
Remarks: my first tab,just watch out for my next tabs..
         MABUHAY taung mga lahat!para to sa kinakainan ko sa kanto ng ayala
         
   Tuning: Drop d, regular tuning
  
   Intro:
e|----------------------------------------------------|
B|----------------------------------------------------|
G|-----6-------------------10-------------------------|
D|-----6- 22 times then ---10- 22 times also----------|
A|-----4-------------------8--------------------------|
E|-----4-------------------8--------------------------|
  
    Verse:
e|----------------------------------------------------|
B|----------------------------------------------------|
G|-----6-------------------10-------------------------|
D|-----6- 22 times then ---10- 22 times also----------|
A|-----4-------------------8--------------------------|
E|-----4-------------------8--------------------------|

    Outro:
e|----------------------------------------------------|
B|----------------------------------------------------|
G|-----6-------------------10-------------------------|
D|-----6- 22 times then ---10- 22 times also----------|
A|-----4-------------------8--------------------------|
E|-----4-------------------8--------------------------|




| /  slide up
| \  slide down
| h  hammer-on
| p  pull-off
| ~  vibrato
| +  harmonic
| x  Mute note
===============================================================================
[ Tab from: http://www.guitartabs.cc/tabs/s/sponge_cola/closure_tab.html ]
Comments