Sponge Cola - Cigarette Chords & Tabs

 

Cigarette Chords & Tabs

Sponge Cola Chords & Tabs

Version: 2 Type: Tab 0 ratings
1 star 2 stars 3 stars 4 stars 5 stars
comments

Cigarette Tab

   
Intro:
E-<12>----------------------------------------------|
B-<12>----After the first drum hit,-----------------|
G-<12>----------------------------------------------|
D-<12>----------------------------------------------|
A-<12>----------------------------------------------|
E-<12>-------------------------------12s\-----------|

E---------------------|
B---------------------|
G---------------------|
D---5-5-4-5-5-4h5p4---|
A-3-----------------5-|
E---------------------|
[ Tab from: http://www.guitartabs.cc/tabs/s/sponge_cola/cigarette_tab_ver_2.html ]
  	3x hanggang dito tapos
	sa last, hanggang 5s7
E-----l----------------------|
B-----l----------------------|
G-----l----------------------|
D-----l-9-9-10-9-9-9h10p9----|
A-5s7-l-------------------10-|
E-----l----------------------|

Verse:
E---------------------|
B---------------------|
G---------------------|
D---5-5-4-5-5-4h5p4---|
A-3-----------------5-|
E---------------------|

E-------------------|
B-------------------|
G-------------------|
D-----4-5-7-5h7p5-4-|
A-5s7---------------|
E-------------------|

Chorus:
G-D-Em-C
G-D-Em-C (all power chords, play eight strums each)
x-x-x-x
x-x-x-x
x-7-9-5-|
5-7-9-5-|
5-5-7-3-|
3-x-x-x
Comments