Sponge Cola - A Tear Chords & Tabs

 

A Tear Chords & Tabs

Sponge Cola Chords & Tabs

Version: 1 Type: Tab

A Tear Tab

   
A Tear
Sponge Cola
Tabber: Sharlie Adrian Enriquez

-|---------0---0--------------|-
-|-----6-6---6--6-------------|-
-|----5-5-5-5-5---------------|-
-|----------------------------|-
-|---5------------------------|-
-|----------------------------|-
[ Tab from: http://www.guitartabs.cc/tabs/s/sponge_cola/a_tear_tab.html ]
-|----------------------------|-
-|----------------------------|-
-|---7--3--7--3-3pm--7--------|-
-|---7--3--7--3-3pm--7(break)-|-
-|---5--1--5--1-1pm--5--------|-
-|----------------------------|-

pm-Palm mute

Yan lang nakapa ko eh, hehe

Coda Seven, ang banda namin
Archie "chie" Escasio- Vox/Rhytm Guitars
Sharlie "sha" Enriquez- Vox/Guitars
Robert Angusto- Vox/Bass Guitars
Patrick "kamote" Ramirez- Drums