Sponge Cola - 22 Chords & Tabs

 

22 Chords & Tabs

Sponge Cola Chords & Tabs

Version: 5 Type: Tab 0 ratings
1 star 2 stars 3 stars 4 stars 5 stars
comments

22 Tab

   
According to my tab, key of C# 'to

/=slide up
\=slide down
*/=hold former note longer (saglit lang) before slide to latter

  G#(9)         A#m(9)        F#(9)
E---------6--------------8------------4------------4-|
B----------------------------------------------------|
G---5---5----------6---6--------3---3----3---3---3---|
D-6---6------6-6/8---8------8\4---4--------4---4-----|
A----------------------------------------------------|
E----------------------------------------------------|
                                              Rhythm enters here( [ ] )
E--------------6---------------8------------4-[------------4-]
B---------------------------------------------[--------------]
G-3------5---5-----------6---6--------3---3---[-3---3---3----]
D---4*/6---6------6-6*/8---8------8\4---4-----[---4---4------]
A---------------------------------------------[--------------]
E---------------------------------------------[--------------]
[ Tab from: http://www.guitartabs.cc/tabs/s/sponge_cola/22_tab_ver_5.html ]
E----------------------------------------------------|
B----------------------------------------------------|
G----------------------------------------------------|
D-4--3/4-3/4-4-4/6-6-6-6--8-8-8-8--4-4-4-4-4-4-4-4-4-|
A-4--3/4-3/4-4-4/6-6-6-6--8-8-8-8--4-4-4-4-4-4-4-4-4-|
E-2--1/2-1/2-2-2/4-4-4-4--6-6-6-6--2-2-2-2-2-2-2-2-2-|

E------------------------------------------|
B------------------------------------------|
G------------------------------------------|
D-4\3/4-6-6-6-6--8-8-8-8---4-4-4-4-4-4-4-4-|
A-4\3/4-6-6-6-6--8-8-8-8---4-4-4-4-4-4-4-4-|
E-2\1/2-4-4-4-4--6-6-6-6---2-2-2-2-2-2-2-2-|

  Halika na...
E------------------------------------|
B------------------------------------|
G------------------------------------|
D-6-6-6-6--8-8-8-8---4-4-4-4-4-4-4-4-| repeat ad infinitum kung ayaw niyo
A-6-6-6-6--8-8-8-8---4-4-4-4-4-4-4-4-| gawin yung effects nila
E-4-4-4-4--6-6-6-6---2-2-2-2-2-2-2-2-|
                      ^
Actually buong song ganito, eh, pero effects guitar  at drums yung nagko-compliment sa 
verse. Sa last chorus lang 'ata ginamit 'tong pattern na 'to e.

'yung solo, since key of C#,siguro nandito('di ko rin makuha eh!:)

  13  14  15  16
E-o-x-o-x---x-o-x-|
B-o-x-O-x---x-o-x-| O=C# o=C# maj. scale notes 13,14,15,16=fret nos.
G-o-x---x-o-x---x-|
D-o-x---x-o-x-o-x-|
A-o-x---x-o-x-O-x-|
E-o-x-o-x---x-o-x-|
Comments