Sponge - Wax Ecstatic Chords & Tabs

 

Wax Ecstatic Chords & Tabs

Sponge Chords & Tabs

Version: 3 Type: Tab 0 ratings
1 star 2 stars 3 stars 4 stars 5 stars
comments

Wax Ecstatic Tab

Band: Sponge
Album: Wax Ecstatic
Song: Wax Ecstatic

Version 1.0 - February 9, 2005

Transcribed By: Jake Thiele
Email:          negative12002@aol.com


.  - palm mute           /  - slide up to
\  - slide down to       ~  - vibrato
h  - hammer on           b  - Bend
p  - pull off            Suffixes for bend
t  - tap                 f  - full bend    h - half bend
ph - pinched harmonic    q  - quarter bend t - tap bend
*  - see comment         ^  - Hold bend    r release bend
x  - Stuccatto           ~  - vibrato bend
,  - slight palm mute    () - ghost note, sustained note
"  - tremolo pick        <> - Trill



standard tuning (EADGBE)

Riff 1 (8x)
|------------------12bf-|
|-10bf--6bf--10bf-------|
|-----------------------|
|-----------------------|
|-----------------------|
|-----------------------|

[ Tab from: http://www.guitartabs.cc/tabs/s/sponge/wax_ecstatic_tab_ver_3.html ]
Riff 2 (2x) [with Riff 1]
|-------------------------------------------------------------------|
|-------------------------------------------------------------------|
|-------------------------------------------------------------------|
|--3-3-3-3-3-3-3-3-6-6-6-6-6-6-6-6-8-8-8-8-8-8-8-8-8-8-8-8-8-8-8-8--|
|--1-1-1-1-1-1-1-1-4-4-4-4-4-4-4-4-6-6-6-6-6-6-6-6-6-6-6-6-6-6-6-6--|
|-------------------------------------------------------------------|


Discontinue Riff 1, play Riff 2 palm muted 4x

Riff 3 (4x)
|----------------------------------|
|----------------------------------|
|----------------------------------|
|----------------------------------|
|-3-3-3-4-4-4-4-6-6-6-6-6-6-6-6-6--|
|-1-1-1-2-2-2-2-4-4-4-4-4-4-4-4-4--|


Riff 4 (4x) [with Riff 1]
|------------------------------------------------------------------|
|------------------------------------------------------------------|
|------------------------------------------------------------------|
|-3-3-3-3-3-3-3-3---------------------------------8-8-8-8-8-8-8-8--|
|-1-1-1-1-1-1-1-1-3-3-3-3-3-3-3-3-6-6-6-6-6-6-6-6-6-6-6-6-6-6-6-6--|
|-----------------1-1-1-1-1-1-1-1-4-4-4-4-4-4-4-4------------------|


Riff 2 4x palm muted
Riff 3 4x
Riff 4 4x 
Solo w/ Riff 3
Riff 4 4x

Riff 5 (4x) [w/ Riff 4]
|--7-----6-----5-----4----|
|-10bf---9bf---8bf---7bf--|
|-------------------------|
|-------------------------|
|-------------------------|
|-------------------------|
Comments