Sponge - Wax Ecstatic Chords & Tabs

 

Wax Ecstatic Chords & Tabs

Sponge Chords & Tabs

Version: 1 Type: Tab 0 ratings
1 star 2 stars 3 stars 4 stars 5 stars
comments

Wax Ecstatic Tab

   
#----------------------------------PLEASE NOTE---------------------------------#
#This file is the author's own work and represents their interpretation of the #
#song. You may only use this file for private study, scholarship, or research. #
#------------------------------------------------------------------------------#


                               Wax Ecstatic
                  From the same titled album from Sponge

                  Tabbed by Jason Kessler

Intro(backwards of Chorus)
___________12___________
_7__12______\/_10_______|
_\/__\/_________\/______|
________________________|
________________________|
________________________|
     Reapeat
  With Wammy Bar
        
  Chorus                     B                D              E
____________________12_/______________________________________________________
_12___7____ __10_________|___________________________________________________|
_________ __\_/__________|___________________7_7_7_7_7_7_7_7_9_9_9_9_9_9_9_9_|
___\_/__\_/______________|___9_9_9_9_9_9_9_9_7_7_7_7_7_7_7_7_9_9_9_9_9_9_9_9_|
_________________________|___9_9_9_9_9_9_9_9_5_5_5_5_5_5_5_5_7_7_7_7_7_7_7_7_|
_________________________|___7_7_7_7_7_7_7_7_________________________________|
                             When things just arent goin your way



_____________________________________
_____________________________________|
_____________________________________|
_4_4_4_5_5_5_7_7_7_7_7_7_7_7_7_7_7___|
_4_4_4_5_5_5_7_7_7_7_7_7_7_7_7_7_7___|
_2_2_2_3_3_3_5_5_5_5_5_5_5_5_5_5_5___|

Angeline it will fix your hunchback

__________________________________________________________________
__________________________________________________________________|
_________________________________________________9_9_9_9_9_9_9_9__|
_9_9_9_9_9_9_9_9_4_4_4_4_4_4_4_4_7_7_7_7_7_7_7_7_9_9_9_9_9_9_9_9__|
_9_9_9_9_9_9_9_9_4_4_4_4_4_4_4_4_7_7_7_7_7_7_7_7_7_7_7_7_7_7_7_7__|
_7_7_7_7_7_7_7_7_2_2_2_2_2_2_2_2_5_5_5_5_5_5_5_5__________________|
  Heres is something that is automatic   its Wax Ecstatic


Solos in time... I promise....
   
         COmments,  Questions or Requests
            Jason Kessler 


Date: Fri, 29 Nov 1996 12:09:57 GMT-400
From: "." 
Subject: "Wax Ecstatic" by Sponge

wax ecstatic- sponge
tabbed by David Cogswell w/ help from Josiah Bean

standard tuning

 Intro [guitar 1 x4 then guitars 1&2 x8]
e|-----------14--
b|--------12-----
g|--16-11--------
d|---------------
a|---------------
e|---------------

 Verse
    B5           D5        Eb5 E5         grad. bend
e|---------------------------------------------
b|--------------------------------------------- 
g|---------------7-7-7-7-7-7-8-9-9-9-9-9-9-9^--
d|--9-9-9-9-9-9--7-7-7-7-7-7-8-9-9-9-9-9-9-9^--
a|--9-9-9-9-9-9--5-5-5-5-5-5-6-7-7-7-7-7-7-7^--
e|--7-7-7-7-7-7--------------------------------
    So   things  aren't going  your       way...

 Pre-Chorus
   F#5 G5    A5
e|--------------------------
b|--------------------------
g|--------------------------
d|-4-4-5-5-5-7-7-7-7-7-7-7--
a|-4-4-5-5-5-7-7-7-7-7-7-7--
e|-2-2-3-3-3-5-5-5-5-5-5-5--
   Angelina this'll fix...

 Chorus
[guitar 1]
e|-----------14--
b|--------12-----
g|--16-11--------
d|---------------
a|---------------
e|---------------

[guitar 2]
    B5           D5        Eb5 E5         
e|---------------------------------------------
b|--------------------------------------------- 
g|---------------7-7-7-7-7-7-8-9-9-9-9-9-9-9---
d|--9-9-9-9-9-9--7-7-7-7-7-7-8-9-9-9-9-9-9-9---
a|--9-9-9-9-9-9--5-5-5-5-5-5-6-7-7-7-7-7-7-7---
e|--7-7-7-7-7-7--------------------------------
  Here's something that is automatic wax ecstatic...

I don't have the record so I can't do the solo, so if
you know it or have, please post it.  I don't know if 
this is even right, but at least I tried.



    

From v7b39@unb.ca Sun Jan 12 15:42:30 1997
Date: Wed, 8 Jan 1997 10:39:35 GMT-400
From: Andrew Cogswell 
To: guitar@olga.net
Subject: Wax Ecstatic by Sponge

wax ecstatic- sponge
tabbed by David Cogswell w/ help from Josiah Bean

There is already a tab for this, but it's silly.

standard tuning

 Intro [guitar 1 x4 then guitars 1&2 x8]
e|-----------14--
b|--------12-----
g|--16-11--------
d|---------------
a|---------------
e|---------------

 Verse
    B5           D5        Eb5 E5         grad. bend
e|---------------------------------------------
b|--------------------------------------------- 
g|---------------7-7-7-7-7-7-8-9-9-9-9-9-9-9^--
d|--9-9-9-9-9-9--7-7-7-7-7-7-8-9-9-9-9-9-9-9^--
a|--9-9-9-9-9-9--5-5-5-5-5-5-6-7-7-7-7-7-7-7^--
e|--7-7-7-7-7-7--------------------------------
    So   things  aren't going  your       way...

 Pre-Chorus
   F#5 G5    A5
e|--------------------------
b|--------------------------
g|--------------------------
d|-4-4-5-5-5-7-7-7-7-7-7-7--
a|-4-4-5-5-5-7-7-7-7-7-7-7--
e|-2-2-3-3-3-5-5-5-5-5-5-5--
   Angelina this'll fix...
[ Tab from: http://www.guitartabs.cc/tabs/s/sponge/wax_ecstatic_tab.html ]
 Chorus
[guitar 1]
e|-----------14--
b|--------12-----
g|--16-11--------
d|---------------
a|---------------
e|---------------

[guitar 2]
    B5           D5        Eb5 E5         
e|---------------------------------------------
b|--------------------------------------------- 
g|---------------7-7-7-7-7-7-8-9-9-9-9-9-9-9---
d|--9-9-9-9-9-9--7-7-7-7-7-7-8-9-9-9-9-9-9-9---
a|--9-9-9-9-9-9--5-5-5-5-5-5-6-7-7-7-7-7-7-7---
e|--7-7-7-7-7-7--------------------------------
  Here's something that is automatic wax ecstatic...

I don't have the record so I can't do the solo, so if
you know it or have it, please post it.  I don't know if 
this is even right, but at least I tried.

Date: Sun, 20 Apr 1997 22:48:01 +0000
From: "fenderguy@hawkpci.net" 
Subject: "Wax Ecstatic" by Sponge


TAB:  "Wax Ecstatic"
ARTIST:  Sponge
ALBUM:  WAX ECSTATIC
TABBED BY:  FenderGUY (Mike Kelp, FenderGUY@hawkpci.net)


This is the key:
Pm.. = Palm mute
~~~~ = Bend up and down rapidly or use your tremelo
**** = Play hard, and loud!!!  :-) yea

     There are two guitars.  Guitar one is standard open tuning, 
and guitar two is tuned down a half step.

GUITAR ONE (Lead):

Intro riff (played 15 & 1/4 times):  Bend all notes to get good 
sound.  These are just simple octave bends.

e-------------------
B----10--5--10--15--
G----12--7--12--17--
D-------------------
A-------------------
E-------------------

VERSE:  Just get a lot of feedback.

Then at the end of every other time the verse riff is played it
goes:  (not quite sure about) Gradually bent more and more...

   *************
e--6-6-6-6-6-6-6
B--6-6-6-6-6-6-6
G---------------
D---------------
A---------------
E---------------

BRIDGE TO CHORUS:  This is a really cool riff. Play 4 times.

   *******************************
e---------------------------------
B---------------------------------
G---------------------------------
D---------------------------------
A--3-3-3-4-4-4-6-6-6-6-6-6-6-6-6-6
E--1-1-1-2-2-2-4-4-4-4-4-4-4-4-4-4

CHORUS: Intro riff 16 times

SOLO:  I'm sorry, but I haven't figured this out yet, but don't 
worry i'm working on it.

END:  BENDS!!!! WOOHOO!!! This is pretty fun.  :-)  Play this 5 
times then end on the 15th fret and don't even screw with the 
wah part after it. hehe :-)

e-------------------------------------------------------------
B-------------------------------------------------------------
G--15~~~~~~~~~~~~14~~~~~~~~~~~~~13~~~~~~~~~~~~~12~~~~~~~~~~~~~
D-------------------------------------------------------------
A-------------------------------------------------------------
E-------------------------------------------------------------

GUITAR TWO (Rythym):

INTRO RYTHYM RIFF:  You jump in right after the drums and play 
this little dingy 2 times (until the verse).  The first time 
slide into the first chord.  ROCK THIS RIFF!!!!!!!!!!!!!!!!!!!

   ***********************************************
e-------------------------------------------------
B-------------------------------------------------
G--4-4-4-4-4-4-4-4-7-7-7-7-7-7-7-7-9-9-9-9-9-9-9-9
D--4-4-4-4-4-4-4-4-7-7-7-7-7-7-7-7-9-9-9-9-9-9-9-9
A--2-2-2-2-2-2-2-2-5-5-5-5-5-5-5-5-7-7-7-7-7-7-7-7
E-------------------------------------------------

VERSE RYTHYM RIFF:  Play 4 times.  Let the lead guitar take 
care of the bend thing.  If you want to play it then do it 
on the 7th fret.

  Pm..............................................
e-------------------------------------------------
B-------------------------------------------------
G-------------------------------------------------
D--4-4-4-4-4-4-4-4-7-7-7-7-7-7-7-7-9-9-9-9-9-9-9-9
A--2-2-2-2-2-2-2-2-5-5-5-5-5-5-5-5-7-7-7-7-7-7-7-7
E-------------------------------------------------  

BRIDGE TO CHORUS RYTHYM RIFF:  Play 4 times.

   *******************************
e---------------------------------
B---------------------------------
G---------------------------------
D---------------------------------
A--4-4-4-5-5-5-7-7-7-7-7-7-7-7-7-7
E--2-2-2-3-3-3-5-5-5-5-5-5-5-5-5-5

CHORUS RYTHYM RIFF:  Neato riff played 2 times. 
VERY FUN!!!!! :-)

   ***********************************************
e-------------------------------------------------
B-------------------------------------------------
G--4-4-4-4-4-4-4-4--------------------------------
D--4-4-4-4-4-4-4-4-4-4-4-4-4-4-4-4-7-7-7-7-7-7-7-7
A--2-2-2-2-2-2-2-2-4-4-4-4-4-4-4-4-7-7-7-7-7-7-7-7                               
E------------------2-2-2-2-2-2-2-2-5-5-5-5-5-5-5-5

  ************************************************
e-------------------------------------------------
B-------------------------------------------------
G--9-9-9-9-9-9-9-9-4-4-4-4-4-4-4-4----------------
D--9-9-9-9-9-9-9-9-4-4-4-4-4-4-4-4-4-4-4-4-4-4-4-4
A--7-7-7-7-7-7-7-7-2-2-2-2-2-2-2-2-4-4-4-4-4-4-4-4
E----------------------------------2-2-2-2-2-2-2-2

   *******************************
e---------------------------------
B---------------------------------
G---------------------------------
D--7-7-7-7-7-7-7-7-2-2-2-2-2-2-2-2
A--7-7-7-7-7-7-7-7-2-2-2-2-2-2-2-2
E--5-5-5-5-5-5-5-5-0-0-0-0-0-0-0-0

SOLO RYTHYM RIFF:  It's just the "BRIDGE TO CHORUS RYTHYM RIFF" 
played 4 times.

END:  Just play the "INTRO RYTHYM RIFF" until the end of the 
song since i'm to lazy to count it and to re-type it. 
hehe :-)

Comments