Sponge - Wax Ecstatic Chords & Tabs

 

Wax Ecstatic Chords & Tabs

Sponge Chords & Tabs

Version: 4 Type: Bass Tab 0 ratings
1 star 2 stars 3 stars 4 stars 5 stars
comments

Wax Ecstatic Bass Tab

Artist: Sponge
Song Title: Wax Ecstatic
Album: Wax Ecstatic

Intro
Gb-------
Db-------
Ab--12\--
Eb-------

Intro/Verse
Gb---------------------------------------------------
Db---------------------------------------------------
Ab--2-2-2-2-2-2-2-2-5-5-5-5-5-5-5-5-7-7-7-7-7-7-7-7--
Eb---------------------------------------------------

Pre Chrous
Gb-----------------------------------
Db-----------------------------------
Ab-----------------------------------
Eb--2-2-2-3-3-3-3-3-5-5-5-5-5-5-5-5--
[ Tab from: http://www.guitartabs.cc/tabs/s/sponge/wax_ecstatic_btab_ver_4.html ]
Chorus/Outro
Gb-------------------------------------------------------------------
Db-------------------------------------------------------------------
Ab--2-2-2-2-2-2-2-2---------------------------------7-7-7-7-7-7-7-7--
Eb------------------2-2-2-2-2-2-2-2-5-5-5-5-5-5-5-5------------------

Gb-------------------------------------------------------------------
Db-------------------------------------------------------------------
Ab--2-2-2-2-2-2-2-2--------------------------------------------------
Eb------------------2-2-2-2-2-2-2-2-5-5-5-5-5-5-5-5-0-0-0-0-0-0-0-0--

Interlude
Gb-----------------------------------
Db-----------------------------------
Ab-----------------------------------
Eb--2-2-2-3-3-3-3-3-5-5-5-5-5-5-5-5--
Comments