Sponge - Velveteen Chords & Tabs

 

Velveteen Chords & Tabs

Sponge Chords & Tabs

Version: 1 Type: Tab 0 ratings
1 star 2 stars 3 stars 4 stars 5 stars
comments

Velveteen Tab

tuning 1/2 step down

I don't think anyone has ever submitted this tab so I thought I would do everyone a
favor and figure it out. They are one of my favorite bands ever and I absolutely love
this song. I think its 100% right. if you have any questions, please e-mail me at
lovegunn666@hotmail.com

I basically just tabbed out the chords because the strumming pattern is pretty self-
explanatory. so just listen to the song and play along. Have fun with it.

INTRO
-------------------------------|
-------------------------------|
-------------------------------|
----9-----9--------------------|
-6--7--6--7--9--6--7--9--6--7--|
-9--0--9--0--0--0--0--0--0--0--|

1st verse
 Delux    sublime   Gigantic for all times
----------------------------------------------------|
----------------------------------------------------|
----------------------------------------------------|
----------9--------------------------9--------------|
-6--------7---------6----------------7--------------|
-9--------0---------9----------------0--------------|

In space...
--------------|
--------------|
--------------|
--------------|
9-----6-----7-|
0-----0-----0-|
[ Tab from: http://www.guitartabs.cc/tabs/s/sponge/velveteen_tab.html ]
Wish for you the stars bow down wish for you their infinite
-----------------------------------------------------------|
-----------------------------------------------------------|
-----------------------------------------------------------|
6----------------9--------------6------------------9-------|
0----------------0--------------0------------------0-------|
0----------------0--------------0------------------0-------|

Crown
--------------------------------|
--------------------------------|
--------------------------------|
--------------------------------|
9-----6-----7-----9-----6-----7-|
0-----0-----0-----0-----0-----0-|

There's an interlude right here before the chorus, it basically just the verse played 
without singing

Chorus
In Velveteen I will surround
-----------------------------|
-----------------------------|
------------1----------------|
------------2----------------|      Play this 3 times
2--------2--2----------------|
5--------4--0----------------|

I'll keep this velvet in your name I'll keep this Velvet from the rain
----------------------------------------------------------------------|
----------------------------------------------------------------------|
---------------1------------------------------------------------------|
7----6---------2-------------------7----6-----------------------------|
7----6---------2-------------------7----6---------9------6----7-------|
5----4---------0-------------------5----4---------0------0----0-------|

2nd verse same as first

Final Chorus he repeats "I'll keep this Velvet in your name" a total of 3 times. just 
repeat it accordingly.

The end is is same as begining.

And thats it short and simple. He uses down strokes the whole time.
But like i said e-mail me if you have any questions.

Check out my webpages for more on me:
www.myspace.com/dalestock
www.myspace.com/idesofmarchtx
Comments