Sponge - Rotting Pinata Chords & Tabs

 

Rotting Pinata Chords & Tabs

Sponge Chords & Tabs

Version: 1 Type: Bass Tab 0 ratings
1 star 2 stars 3 stars 4 stars 5 stars
comments

Rotting Pinata Bass Tab

Artist: Sponge
Song Title: Rotting Pinata
Album: Rotting Pinata

Intro
Gb-----------------------------
Db-----------------------------
Ab--5--------------5-----------
Eb-----5--3-----------5--7--3--

Verse
Gb-------------------------------------------------------------------
Db-------------------------------------------------------------------
Ab-------------------------------------------------------------------
Eb--0-0-0-0-0-0-0-0-0-0-0-0-0-0-0-0-2-2-2-2-2-2-2-2-2-2-2-2-2-2-2-2--

Gb-------------------------------------------------------------------
Db-------------------------------------------------------------------
Ab----------------------------------5-5-5-5-5-5-5-5-5-5-5-5-5-5-5-5--
Eb--0-0-0-0-0-0-0-0-0-0-0-0-0-0-0-0----------------------------------
[ Tab from: http://www.guitartabs.cc/tabs/s/sponge/rotting_pinata_btab.html ]
Chorus
Gb-------------------------------------------------------------------
Db-------------------------------------------------------------------
Ab--2-2-2-2-2-2-2-2-2-2-2-2-2-2-2-2----------------------------------
Eb----------------------------------3-3-3-3-3-3-3-3-3-3-3-3-3-3-3-3--

Gb-------------------------------------------------------------------
Db-------------------------------------------------------------------
Ab--5-5-5-5-5-5-5-5-----------------5-5-5-5-5-5-5-5------------------
Eb------------------3-3-3-3-3-3-3-3-----------------3-3-3-3-3-3-3-3--

First Part Of Interlude
Gb------------------------------
Db------------------------------
Ab--5---------------5-----------
Eb-----5--3------------5--7--3--

Second Part Of Interlude(2:32)
Gb--------------------------
Db--------------------------
Ab--5-----------5-----------
Eb-----5--7--3-----5--7--3--

Third Part Of Interlude (I'm Rotting, I'm Rotting,...)
Gb-----------------------------------
Db-----------------------------------
Ab--5-5-5-5--------------------------
Eb----------5-5-5-5-7-7-7-7-3-3-3-3--
Comments