Sponge - Plowed Chords & Tabs

 

Plowed Chords & Tabs

Sponge Chords & Tabs

Version: 1 Type: Bass Tab 0 ratings
1 star 2 stars 3 stars 4 stars 5 stars
comments

Plowed Bass Tab

Artist: Sponge
Song Title: Plowed
Album: Rotting Pinata

Intro
Gb---------------------------------------------------
Db---------------------------------------------------
Ab---------------------------------------------------
Eb--0-0-0-0-0-0-0-0-0-0-0-0-0-0-0-0-0-0-0-0-0-0-0-0--

Verse
Gb-------------------------------------------------------------------
Db-------------------------------------------------------------------
Ab----------------------------------------------------------5-5-5-5--
Eb--0-0-0-0-0-0-0-0-2-2-2-2-2-2-2-2-5-5-5-5-5-5-5-5-2-2-2-2----------

Gb-----------------------------------------------------------------------------
Db-----------------------------------------------------------------------------
Ab--3-3-3-3-3-3-3-3-3-3-3-3-3-3-3-3-3-3-3-3-3-3-3-3----------------------------
Eb--------------------------------------------------3-3-3-3-3-3-3-3-3-3-3-3-3--

First Part Of Chorus
Gb-------------------------------------------------------------------
Db-------------------------------------------------------------------
Ab--5-5-5-5-5-5-5-5-5-5-5-5-5-5-5-5-3-3-3-3-3-3-3-3-3-3-3-3-3-3-3-3--
Eb-------------------------------------------------------------------
[ Tab from: http://www.guitartabs.cc/tabs/s/sponge/plowed_btab.html ]
(I'm buried by the sound....)
Gb-------------------------------------------------------------------
Db-------------------------------------------------------------------
Ab--3-3-3-3-3-3-3-3-3-3-3-3-3-3-3-3-3-3-3-3-3-3-3-3-3-3-3-3-3-3-3-3--
Eb-------------------------------------------------------------------

Second Part Of Chorus
Gb-------------------------------------------------------------------
Db-------------------------------------------------------------------
Ab----------------------------------3-3-3-3-3-3-3-3-3-3-3-3-3-3-3-3--
Eb--0-0-0-0-0-0-0-0-0-0-0-0-0-0-0-0----------------------------------

(When I'm lost and im found and i cant touch the ground...)
Gb-------------------------------------------------------------------
Db-------------------------------------------------------------------
Ab--2-2-2-2-2-2-2-2-2-2-2-2-2-2-2-2-3-3-3-3-3-3-3-3-3-3-3-3-3-3-3-3--
Eb-------------------------------------------------------------------

(I'm plowed into the sound)
Gb-------------------------------------------------------------------
Db-------------------------------------------------------------------
Ab--3-3-3-3-3-3-3-3-3-3-3-3-3-3-3-3-3-3-3-3-3-3-3-3-3-3-3-3-3-3-3-3--
Eb-------------------------------------------------------------------

Interlude
Gb-------------------------------------------------------------------
Db-------------------------------------------------------------------
Ab-------------------------------------------------------------------
Eb--0-0-0-0-0-0-0-0-0-0-0-0-0-0-0-0-0-0-0-0-0-0-0-0-0-0-0-0-0-0-0-0--
Comments