Sponge - My Baby Said Chords & Tabs

 

My Baby Said Chords & Tabs

Sponge Chords & Tabs

Version: 2 Type: Bass Tab 0 ratings
1 star 2 stars 3 stars 4 stars 5 stars
comments

My Baby Said Bass Tab

   
Song Title: My Baby Said
Artist: Sponge
----------------------------------------------

Easy song from the Wax Ecstatic album.  Pretty cool though.

intro:            verse:
   e e e e e e e   e e e e e e e e e e e e e e e e
G]---------------|---------------------------------
D]-------3-2-1-1-|---------3-2-1-1---------3-2-1-1-
A]-1-2-2---------|-0-0-2-2---------0-0-2-2---------
E]---------------|---------------------------------

You get the idea.  After that a few times it moves 
on to the chorus (surprise, surprise).  
[ Tab from: http://www.guitartabs.cc/tabs/s/sponge/my_baby_said_btab_ver_2.html ]
chorus:
   e e e e e e e e e e e e e e e e e e e e e e e e e e e e e e e e
G]----------------------------------------------------------------
D]----------------------------------------------------------------
A]-2-2-2-2-2-2-2-2-4-4-4-4-4-4-4-4-6-6-6-6-6-6-6-6-4-4-4-4-4-4-4-4
E]----------------------------------------------------------------

   e e e e e e e e e e e e e e e e e e e e e e e e e e e e e e e e
G]----------------------------------------------------------------
D]----------------------------------------------------------------
A]-2-2-2-2-2-2-2-2-4-4-4-4-4-4-4-4-7-7-7-7-7-7-7-7-7-7-7-7-7-7-7-7
E]----------------------------------------------------------------

Then the verse, then the chorus, then the verse again, I think.<-?

Submitted by:  Nicholas May (dtaylor@scican.net)
Comments