Sponge - Live Here Without You Chords & Tabs

 

Live Here Without You Chords & Tabs

Sponge Chords & Tabs

Version: 1 Type: Tab 0 ratings
1 star 2 stars 3 stars 4 stars 5 stars
comments

Live Here Without You Tab

   
Sponge - Live Here Without You
Joel Patterson, jpatterson100@hotmail.com
Artist: Sponge
Album: New Pop Sunday
Song: Live Here Without You
Tabbed by Joel Patterson

After looking around the net for tabs for Sponge's
new album New Pop Sunday, and finding none, I had
a go at this one.  The chords are all right, but I
am not sure about the solo.  They use at least two
guitars on the CD, and besides - If I was good 
enough to figure out the solo, I would be somewhere
earning a hell of a lot more money than I am now.

Give it a go, I hope you like it.  Send comments and
especially corrections to jpatterson100@hotmail.com

Tuning: Down 1/2 Step (Eb, Ab, Db, Gb, Bb, Eb)

Chords:

   G          D2        D         Em        C
--3--  --0--  --2--  --0--  --3--  
--3--  --3--  --3--  --0--  --2--
--0--  --2--  --2--  --0--  --0--
--0--  --0--  --0--  --2--  --2--
--2--  --0--  --x--  --2--  --3--
--3--  --2--  --x--  --0--  --x--

Intro.

E--3-3--0--0----|
B--3-3--3--3----|
G--0-0--2--2----|  
D--0-0--0--0----|  Repeat x 4
A--2-2--0--0----|
E--3-3--2--2----|

Verse 1

G  D2                       G              
    Take my lips and sew them shut

    D2                        G               D        G
    Without words I'll dry up and blow away
 
          D                          G           D        G      
    She said that we were both so out of touch

                                             Em    
    And when we talked we'd say things
 
             D                     Em 
    That don't mean anything

       Em          D             Em                C          
    I hear your voice but you're so far away

Chorus

    G       D2      G     
    I can do without these things
  
                     Em
    But what I can't do
               
    Is live here without you

    C
    Live here without you

    Live here without 

              G                  D2   
    I can't kiss you anymore
  
              Em                 D
    I can't miss you anymore
  
                     G             D2  
    Love's not easy to ignore

                                     Em                     D    
    When your heart lies bleeding on the floor
  
                C                
    I'll just sit and count the days
  
           D                            G 
    The days until you'll be mine

Verse 2
[ Tab from: http://www.guitartabs.cc/tabs/s/sponge/live_here_without_you_tab.html ]
  I'll take in air and I'll fill up
  Never breath out I'll burst into flames
  Without you I can never get enough
  Of the thing that makes me feel like
  Life's worth anything
  I feel your touch at the thought of your name

  I can do without these things
  What I can't do
  Is live here without you
  Live here without you
  Live here without you

  I can't kiss you anymore
  I can't miss you anymore
  Love's not easy to ignore 
  When your heart lies bleeding on the floor
  I'll just sit and count the days
  The days until you'll be mine

Solo

E-----------------------------------------------|
B-------------------------------------15--------|
G----------------------------14-16-17---17-14---|
D--------------------14-16-17-------------------|
A------------14-15-17---------------------------|
E-12-14-15-17-----------------------------------|

E----------------------------|--15----15----15---15-----15-----15----|
B----------------------------|----17----17----17---17-----17-----17--|
G--16-16-16h17p16p14-16-16---|------16----16---------16-----16-------|
D----------------------------|---------------------------------------|
A----------------------------|---------------------------------------|
E----------------------------|---------------------------------------|
  
E----15h17-15-14h15p14-------|-------------------|-------------------|
B---------------------15-17--|-15-------15-------|-15-------15-------|
G----------------------------|-----14-------14---|-----14-------14---|
D----------------------------|---17--17---17--17-|---17--17---17--17-|
A----------------------------|-------------------|-------------------|
E----------------------------|-------------------|-------------------|

E-------------------|-------------------|--------------------|--------------|
B-15-------15-------|-15-------15-------|------15--------17--|--19b20vvvvv--|
G-----14-------14---|-----14-------14---|-17--12----17--12---|--------------|
D---16--16---16--16-|---16--16---16--16-|--------------------|--------------|
A-------------------|-------------------|--------------------|--------------|
E-------------------|-------------------|--------------------|--------------|


  Em  D       Em         D 
  I      don't want anything

            Em D Em           D
  Like a Jesus or a Superman

  Em D    Em          D  
  I   don't want anything

     Em            D  Em            C              
  If you could be here with me again


  I can do without these things
  But what I can't do
  Is live here without you
  Live here without you
  Live here without you

  I can't kiss you anymore 
  I can't miss you anymore
  Love ain't easy to ignore
  When your heart lies bleeding on the floor
  I'll just sit and count the days
  The days until

  I can't kiss you anymore
  I never felt alone like this before
  Love ain't easy to ignore
  I just can't live here anymore
  Time is killing me and I'm killing
  Nothing but time.

There you go.  If you don't like it, I don't really care.

Comments