Spoken - Promise Chords & Tabs

 

Promise Chords & Tabs

Spoken Chords & Tabs

Version: 2 Type: Tab 0 ratings
1 star 2 stars 3 stars 4 stars 5 stars
comments

Promise Tab

Spoken - Promise
Tabbed by: nick schuurman
Email:

Tuning: Drop D, 1/2 step down


Intro (Palm mute)
e|---------------------------------------------------------------------------|
B|---------------------------------------------------------------------------|
G|------------------------------------------------------------5--------------|
D|---0-2-0-5-2--0-2-0-5-2--5-5-5--5-5-5-----------------------5--------------|
A|---0-2-0-5-2--0-2-0-5-2--5-5-5--5-5-5---repeat then end on--3--------------|
D|---0-2-0-5-2--0-2-0-5-2--5-5-5--5-5-5--------------------------------------|
[ Tab from: http://www.guitartabs.cc/tabs/s/spoken/promise_tab_ver_2.html ]
Verse
e|--------------3-------------3----------------------------------------------|
B|--------------3-------------3----------------------------------------------|
G|--------------------------------5------------------------------------------|
D|---0-2-0-5-2-----0-2-0-5-2------5------------------------------------------|
A|---0-2-0-5-2-----0-2-0-5-2------3---repeat---------------------------------|
D|---0-2-0-5-2-----0-2-0-5-2-------------------------------------------------|

Chorus
e|---------------------------------------------------------------------------|
B|----------5-5-5------------------------------------------------------------|
G|---7-7-7--4-4-4--5-5-5-----------------------------------------------------|
D|---7-7-7--2-2-2--5-5-5-----------------------------------------------------|
A|---5-5-5--2-2-2--3-3-3---repeat--------------------------------------------|
E|----------2-2-2------------------------------------------------------------|

Bridge
e|---------------------------------------------------------------------------|
B|---------------------------------------------------------------------------|
G|--------------5-5-5--------------------------------------------------------|
D|---2-2-2-2-2--5-5-5--------------------------------------------------------|
A|---2-2-2-2-2--3-3-3---repeat-----------------------------------------------|
D|---2-2-2-2-2---------------------------------------------------------------|

============================================================================
Comments