Spoken - Promise Chords & Tabs

 

Promise Chords & Tabs

Spoken Chords & Tabs

Version: 1 Type: Tab 0 ratings
1 star 2 stars 3 stars 4 stars 5 stars
comments

Promise Tab

   
Band: Spoken
Song: Promise
Album: A Moment of Imperfect Clarity
Tabber: Alextx89
Tuning: Standard (E, A, D, G, B, E)

Hey, no ones made a tab for this band.  Which is retarded.
They should be shot with knives. [dont ask].  anywayz, heres the tab:

Intro:
e|-----------------------------------------------------------
B|-----------------------------------------------------------
G|-----------------------------------------------------------
D|-------------------------------------------------------4-7-
A|--2-4-2-4-2- X2 ---------------          2-4-2-4-2-X2 -4-7-
E|------------------------2-2-2---2--2-2    -------------2-5-
  pm>>>>>>>>>>>>>>>>>>>>>>>>>>>>>>>>>>>>  pm>>>>>>>>

Verse:
e|-------------       -----
B|-------------       -----
G|-----------4-       -----
D|-----------4-       -4-4-
A|-2-4-2-4-2---       -4-4-
E|-------------  X2   -2-2-

Chorus:
E|-0-0/0-0/0-0-
B|-0-0/0-0/0-0-
G|-6-6/8-8/4-4-
D|-6-6/8-8/4-4-
A|-4-4/6-6/2-2-
E|-0-0/0-0/0-0-

Verse
[ Tab from: http://www.guitartabs.cc/tabs/s/spoken/promise_tab.html ]
Bridge:
Chords are mutedly played between guitars.  Hey at least they aren't Amish.

e|----------------------------------------------------------------------
B|----------------------------------------------------------------------
G|----------------------------------------------------------------------
D|-4-4-4--7-7-7--4-4-4--7-7-7--X-X-X-X-7--X-X-X-X-X-X-77--X-X-X-X-777---
A|-4-4-4--7-7-7--4-4-4--7-7-7--X-X-X-X-7--X-X-X-X-X-X-77--X-X-X-X-777---
E|-2-2-2--5-5-5--2-2-2--5-5-5--X-X-X-X-5--X-X-X-X-X-X-55--X-X-X-X-555---

e|----------------------------------------------------------------------
B|----------------------------------------------------------------------
G|----------------------------------------------------------------------
D|-X-X-X-X-7777--X-X-X-X-777--X-X-X-X-X-X-777--X-X-X-X-777--X-X-X-X-777-
A|-X-X-X-X-7777--X-X-X-X-777--X-X-X-X-X-X-777--X-X-X-X-777--X-X-X-X-777-
E|-X-X-X-X-5555--X-X-X-X-555--X-X-X-X-X-X-555--X-X-X-X-555--X-X-X-X-555-

e|------------
B|------------
G|------------
D|[4-4-4-7-7]-
A|[4-4-4-7-7]-
E|[2-2-2-5-5]-
  (^  X8   ^)

PS: heres to all those ppl that are kick@$$ that live in Flower Mound and
Mequon.  You guys keep rolling that grass...err u kno wat i mean.
Comments