Spoken - Promise Chords & Tabs

 

Promise Chords & Tabs

Spoken Chords & Tabs

Version: 1 Type: Bass Tab 0 ratings
1 star 2 stars 3 stars 4 stars 5 stars
comments

Promise Bass Tab

   
Artist:Spoken
Song:Promise
Album:Moment of Imperfect Clarity
Tabber:Alextx89
Tuning:Standard (E, A, D, G)

Intro:
G|-------------------------------------|-------------------|
D|-------------------------------------|-------------------|
A|-2-4-2-4-2-    X2 -------------------|-------------------|
E|----------------------2-2-2--2--2-2--|-2-22-2-2--5-55-5-5|
                                       (play w/ the power chords)
Verse:
G|--------------------------|
D|--------------------------|
A|-2-4-2-4-2--2-4-2-4-2-----|
E|-----------------------2-2|
                         ^ ^ play with chords
Chorus:
G|------------|
D|------------|
A|-4-4/6-6/2-2|
E|------------|
[ Tab from: http://www.guitartabs.cc/tabs/s/spoken/promise_btab.html ]
Bridge:
G|------------------------------------------------------
D|------------------------------------------------------
A|------------------------------------------------------
E|-2-2-2--5-5-5--2-2-2--5-5-5--X-X-X-X-5-X-X-X-X-X-X-55-

G|------------------------------------------------------
D|------------------------------------------------------
A|------------------------------------------------------
E|-X-X-X-X-555-X-X-X-X-5555-X-X-X-X-555-X-X-X-X-X-X-555-

G|--------------------------------------
D|--------------------------------------
A|--------------------------------------
E|-X-X-X-X-555-X-X-X-X-555-[-2-2-2-55-]-
                             ^^ X8 ^^

END

PS:sup all ppl that kno weymier.  shoot ur enemies with knives.  cya guyz l8r
Comments