Spoken - Forevermore Chords & Tabs

 

Forevermore Chords & Tabs

Spoken Chords & Tabs

Version: 1 Type: Tab 0 ratings
1 star 2 stars 3 stars 4 stars 5 stars
comments

Forevermore Tab

Artist: Spoken
Title: Forevermore
Album: Echoes of the Spirit...       
Transcribed by: Jordan Dahl
Email: thejball@hotmail.com


Drop D tuning
it's recorded in D#, but for more practical reasons, this is in D

  p.m.           p.m.            p.m.           p.m.....continue pattern
e---------------------------------------------------------10\-
b-------------------------------------------------------------
g----------------------------0--------------------------------
D-0--0-0--2h3-2--0--0-0--2h3-----0--0-0--2h3-2--0--0-0-0------
A-0--0-0---------0--0-0----------0--0-0---------0--0-0-0------
D-0--0-0---------0--0-0----------0--0-0---------0--0-0-0------


d-0--0-0--0-0-0---0-0-0--1-1-1-0--0-0-0--0-0-0---0-0-0---1--0----
A-0--0-0--------3-0-0-0-----------0-0-0--------3-0-0-0-----------
D-0--0-0----------0-0-0-----------0-0-0----------0-0-0-----------

Verse:
on BREAK!
-----------------------------------------------
-----------------------------------------------
--7\-------------------------------------------
--7\--0-0--1-1-1-0--0-0-0--0-0-0----0-0-0--1-0-
--5\--0-0-----------0-0-0--------3--0-0-0------
--0---0-0-----------0-0-0-----------0-0-0------


d-0-0--1-1-1-0--0-0-0--0-------0------
A-0-0-----------0-0------3-3-3---3-3--
D-0-0-----------0-0-------------------
[ Tab from: http://www.guitartabs.cc/tabs/s/spoken/forevermore_tab.html ]
Refrain:
     and i will follow you forever/
     he's been calling you forever
------------------------------------
------------------------------------
-------------------------3--5-------
-0-0-0-0----0-0-0-0-0----3--5----5--
-0-0-0-0----0-0-0-0-0----1--3----5--
-0-0-0-0----0-0-0-0-0------------5--

  and i will break these chains that bind my spirit
------------------------------------
------------------------------------
-------------------------3--5-------
-0-0-0-0----0-0-0-0-0----3--5----0--
-0-0-0-0----0-0-0-0-0----1--3----0--
-0-0-0-0----0-0-0-0-0------------0--

 you would surrender if you could only hear it
------------------------------------------------
------------------------------------------------
-----------------------3--5-----------------2---
-0-0-0-0----0-0-0-0-0--3--5-------5---------4---
-0-0-0-0----0-0-0-0-0--1--3-------5---------3---
-0-0-0-0----0-0-0-0-0-------------5---------4---


d--------7-7-7------------5-----------7-7-7------------
A-5-5-5-5---------7\-3-3------5-5-5-5---------7\-3-3-3-
D--------------7---------------------------7-----------

Screaming part:
d---7----5----3--
A-5-7--3-5--1-3--
D---7----5----3--

end:
d-0-3--0-2---0-3--0-2---0-3--0-2---0-0-3--0-3-0-
A-0-3--0-2---0-3--0-2---0-3--0-2---0-0-3--0-3-0-
D-0-3--0-2---0-3--0-2---0-3--0-2---0-0-3--0-3-0-
Comments