Spoken - Bitter Taste Chords & Tabs

 

Bitter Taste Chords & Tabs

Spoken Chords & Tabs

Version: 1 Type: Tab

Bitter Taste Tab

This is only the intro which is also the verse. Ill have more of it in a while. but it's 
song
[ Tab from: http://www.guitartabs.cc/tabs/s/spoken/bitter_taste_tab.html ]
       Intro
       ------------------------------------------------------------|
       ------------------------------------------------------------|
       ------------------------------------------------------------|
       ------2-2-2-2-2-2------2-2-2-2-2-2-----2-2-2-2-2-2----------|
       --4-4-2-2-2-2-2-2--4-4-2-2-2-2-2-2-4-4-2-2-2-2-2-2----------|
       --2-2--------------2-2-------------2-2----------------------|

       ------------------------------------------------------------|
       ------------------------------------------------------------|
       --5-5-5-5--7-7-7-7-7-7--------------------------------------|
       --5-5-5-5--7-7-7-7-7-7--------------------------------------|
       --3-3-3-3--5-5-5-5-5-5--------------------------------------|