Spn-x - You Are My Mind Chords & Tabs

 

You Are My Mind Chords & Tabs

Spn-x Chords & Tabs

Version: 1 Type: Tab 0 ratings
1 star 2 stars 3 stars 4 stars 5 stars
comments

You Are My Mind Tab

   
SPN-X - You are my Mind

This is my first tab of a great song of SPN-X!!!
If it isn`t correct, mail me...
Standart tuning E,a,d,g,h,E

INTRO/VERSE1:

(clean)
e--------------------------------------------------------------------------
h--------------------------------------------------------------------------
g---9---9---9---9----4---4---4---4----6---6---6---6----2---2---2---2-------
d--9-9-9-9-9-9-9-9--4-4-4-4-4-4-4-4--6-6-6-6-6-6-6-6--2-2-2-2-2-2-2-2------
a-7---7---7---7----2---2---2---2----4---4---4---4----0---0---0---0---------
E--------------------------------------------------------------------------
  E                h                C#               a

BRIDGE:

(distorsion and palm muted)
e----------------------------------------------------------
h----------------------------------------------------------
g-------------------------------------------------4--------
d-666666666666222222222222-666666666666444444444444-break--
a-444444444444000000000000-444444444444222222222222--------
E----------------------------------------------------------
And I feel you...

CHORUS:
[ Tab from: http://www.guitartabs.cc/tabs/s/spn_x/you_are_my_mind_tab.html ]
(distorsion)
e-----------------------------------------------------------
h-----------------------------------------------------------
g-999999999999-666666666666-222222222222-444444444444-------
d-999999999999-666666666666-222222222222-444444444444-------
a-777777777777-444444444444-000000000000-222222222222-------
E-----------------------------------------------------------
You are a part of me...

VERSE2:

(distorsion and palm muted)
e----------------------------------------------------------
h----------------------------------------------------------
g----------------------------------------------------------
d-999999999999444444444444666666666666222222222222---------
a-777777777777222222222222444444444444000000000000---------
E----------------------------------------------------------
You and I we together...

BRIDGE2:

(distorsion)  ~ let it ring!
e---------------------------------
h---------------------------------
g-6~--2~--6~--4~--4---------------
d-6~--2~--6~--4~--4-break---------
a-4~--0~--4~--2~--2---------------
E---------------------------------
And I feel you...

than comes chorus again with distorsion 
after that play chorus slow and clean:

(clean):
e----------------------------------------------------------------------
h----------------------------------------------------------------------
g---9---9---9---9---6---6---6---6---2---2---2---2---4---4---4---4------
d--9-9-9-9-9-9-9-9-6-6-6-6-6-6-6-6-2-2-2-2-2-2-2-2-4-4-4-4-4-4-4-4-----
a-7---7---7---7---4---4---4---4---0---0---0---0---2---2---2---2--------
E----------------------------------------------------------------------
You are a part of me...

than kick in distorsion and play chorus two times and that is it!!!!!!!!
>END<

Any Questions?? Mail me... ->jthamm@web.de

CHECK OUT MY COOL PUNKBAND *DRANK MILK*!!!!
        www.drankmilk.de
This band will rule the world, soon!!!!!!!!!
Comments