Split Enz - History Never Repeats Chords & Tabs

 

History Never Repeats Chords & Tabs

Split Enz Chords & Tabs

Version: 2 Type: Tab 0 ratings
1 star 2 stars 3 stars 4 stars 5 stars
comments

History Never Repeats Tab

   
#----------------------------------PLEASE NOTE---------------------------------#
#This file is the author's own work and represents their interpretation of the #
#song. You may only use this file for private study, scholarship, or research. #
#------------------------------------------------------------------------------##
From: sandy@waikato.ac.nz (Sandy Davidson)

History Never Repeats - Split Enz


|-----3-----3--|
|-----3-----3--|
|--5--5-----5--|  Figure 1
|-----5--5--5--|
|--------------|
|--------------|


|----3--5-----5-----5-----5--5-----5--5--|
|----3--5-----5-----5-----5--5-----5--5--|
|-5--5--6-----6-----6-----6--6-----6--6--|  Figure 2
|----5--7-----7-----7-----7--7-----7--7--|
|-------7-----7-----7-----7--7-----7--7--|
|-------5-----5-----5-----5--5-----5--5--|


|----3--5-----5-----5---|
|----3--5-----5-----5---|
|-5--5--6-----6-----6---|  Figure 3
|----5--7-----7-----7---|
|-------7-----7-----7---|
|-------5-----5-----5---|

[ Tab from: http://www.guitartabs.cc/tabs/s/split_enz/history_never_repeats_tab_ver_2.html ]
|---------------5-----5------8---|
|---------------5-----5------8---|
|---7--6--5-----6-----6------9---|  Figure 4
|------------7--7-----7------10--|
|---------------7--7--7--10--10--|
|---------------5-----5------8---|


|-------------------------------------|
|----------------1-----------3--------|
|-7--6--5-----2-----------4--------5--|  Figure 5
|----------3--------3--5--------5-----|
|-------------------------------------|
|-------------------------------------|

||---6--6--6--8--8--8--9-/12--7/14---||
||---7--7--7--9--9--9--10-13--8-15---||
||*--6--6--6--8--8--8--9------7-----*||  Figure 6
||*--0--0--0--0--0--0---------------*||
||-----------------------------------||
||-----------------------------------||

Intro

   4 x Figure 1

Chorus 1

   3 x Figure 1
   1 x Figure 2
   3 x Figure 1
   1 x Figure 3

Chorus 2

   3 x Figure 1
   1 x Figure 2
   3 x Figure 1
   1 x Figure 2

Verse

   3 x Figure 4
   1 x Figure 5

Bridge (a short solo)

   1 x Figure 6

The order in which these parts go together is simple to figure out
if you have the recording.  I think it goes something like:

Intro, Chorus 1, Verse, Chorus 1, Verse, Chorus 2, Bridge, Chorus 1...

Corrections welcome (I'm not to sure about the solo).
Comments