Splin - Beatiful Fingerpicking Song Chords & Tabs

 

Beatiful Fingerpicking Song Chords & Tabs

Splin Chords & Tabs

Version: 1 Type: Tab 1 rating
1 star 2 stars 3 stars 4 stars 5 stars
comments

Beatiful Fingerpicking Song Tab

this is main (keeps repeating) 

E---------------------------------------------------------------
B-------1---------------1------------0--------0---------0-------
G-----2-----2---------2---2--------0---0---------0----------0---
D---2---------2-----0-------0----0-------0----------0---------0-
A-0-------------------------------------------------------------
E----------------2-------------3--------------------------------

this is played sometimes, its just different at the end to make it sound different
[ Tab from: http://www.guitartabs.cc/tabs/s/splin/beatiful_fingerpicking_song_tab.html ]
E---------------------------------------------------------------
B-------1---------------1------------0--------0---------3--1--0-
G-----2-----2---------2---2--------0---0---------0--------------
D---2---------2-----0-------0----0-------0----------0-----------
A-0-------------------------------------------------------------
E----------------2-------------3--------------------------------

NOTE: i want u all to enjoy this song as much as possible because this is a beatiful
russian song by a band called SPLIN (pronounced Spleen) its called (translated)
God is too tired of loving us. wow it sounds pretty bad in english. im going to try 
to put as much detail into this as possible

Chords used:

Am  (everyone knows the fingering)

then,  these 2 :    --0-------0----------
                    --1-------0-----------
                    --2-------0-----------
                    --0-------0-------------
                    --3-------3------------
                   
u just move ur middle finger from Am to change to the next chord
and after its just one string 3rd fret.


Very easy but very beautiful.



Comments