Splendora - Youre Standing On My Neck Chords & Tabs

 

Youre Standing On My Neck Chords & Tabs

Splendora Chords & Tabs

Version: 1 Type: Tab

Youre Standing On My Neck Tab

 Intro: "La, La, La, La, La"
e----------------------------------------|
b----------------------------------------|
g---2-----4--2---------------------------|
d------3--------3------------------------|
a----------------------------------------|
e----------------------------------------|

Verse 1:"This is my stop...Got to get off"
(x2)
e----------------------------------------|
b----------------------------------------|
g----------------------------------------|
d--3--6----------------------------------|
a--3--6----------------------------------|
e--1--4----------------------------------|
        "I may go pop"
e----------------------------------------|
b----------------------------------------|
g----------------------------------------|
d--3--6--8-------------------------------|
a--3--6--8-------------------------------|
e--1--4--6-------------------------------|
[ Tab from: http://www.guitartabs.cc/tabs/s/splendora/youre_standing_on_my_neck_tab.html ]
Pre-Chorus: "Excuse me? Excuse me?"
(x2)
e----------------------------------------|
b----------------------------------------|
g--------5-------------------------------|
d--8/6/8-5-------------------------------|
a--8/6/8-3-------------------------------|
e--6/4/6---------------------------------|

Chorus: "I've got to be direct..."
(x4)
e----------------------------------------|
b----------------------------------------|
g--6-------------------------------------|
d--6--6--8-------------------------------|
a--4--6--8-------------------------------|
e-----4--6-------------------------------|

Intro: "La, La, La, La, La"
(x6)
e----------------------------------------|
b----------------------------------------|
g---2-----4--2---------------------------|
d------3--------3------------------------|
a----------------------------------------|
e----------------------------------------|

Fade out