Splender - Yeah Whatever Chords & Tabs

 

Yeah Whatever Chords & Tabs

Splender Chords & Tabs

Version: 3 Type: Tab 0 ratings
1 star 2 stars 3 stars 4 stars 5 stars
comments

Yeah Whatever Tab

   
T1: Mike Ryan, theslurpeekid@hotmail.com, Splender, Yeah Whatever, ?

S1: this is a sweet song, This is a easy as hell to play, so here you
go.

Verse Chord:
Cm - x35543

Pre-Chorus Chords:
Cm - x355xx
Bb - x133xx
A  - 577xxx
G  - 355xxx

Chorus Chord:
E  - x799xx

() - quiet

Verse:
e|-----3---3----------3-----------3------------------------------------
B|-----4-----4----(4)---4-----(4)---4-----(4)---5p4--------------------
G|---5---5-----(5)--------(5)---------(5)-----5----5----6h5------------
D|-5--------------------------------------------------5----------------
A|---------------------------------------------------------------------
E|---------------------------------------------------------------------
[ Tab from: http://www.guitartabs.cc/tabs/s/splender/yeah_whatever_tab_ver_3.html ]
Pre-Chorus
e|---------------------------------------------------------------------
B|---------------------------------------------------------------------
G|-55--33----------55--33----------------------------------------------
D|-55--33--77--55--55--33----------------------------------------------
A|-33--11--77--55--33--11----------------------------------------------
E|---------55--33------------------------------------------------------

Chorus
e|---------------------------------------------------------------------
B|---------------------------------------------------------------------
G|-99999999------------------------------------------------------------
D|-99999999-etc.-------------------------------------------------------
A|-77777777------------------------------------------------------------
E|---------------------------------------------------------------------

easy huh?
theslurpeekid@hotmail.com
Comments