Splender - Yeah Whatever Chords & Tabs

 

Yeah Whatever Chords & Tabs

Splender Chords & Tabs

Version: 2 Type: Tab 0 ratings
1 star 2 stars 3 stars 4 stars 5 stars
comments

Yeah Whatever Tab

   
This isnt exatact but pretty close

Standard tuning, no capo

Intro/verse
e----3---3----3--------------------------
b---------------4p3-3--------------------
g--3---3--- 3----------5-3---------------
d-1------------------------5--------------
a----3------------------------------------
E--------3--------------------------------


"You sit by the phone with you tonge hangin out..."

A#-G#-A#-G#

"we dont have to be friends..."

G-G#

"YEAHHHHH, whatever..."
[ Tab from: http://www.guitartabs.cc/tabs/s/splender/yeah_whatever_tab_ver_2.html ]
D#-F-G-F

"cuz i'm out of time"

C-G-G#

"Damned if you do, fucked if you dont"

G-G#-A-G#

The chords used are all power chords 
   A#  G#  G   D#  ^F   F    C 
e-----------------------------
B-----------------------------
G--------------8---10------5-
D-8---6---5---8---10--3---5-
A-8---6---5---6---8---3---3-
E-6---4---3------------1-----


Comments