Splender - Yeah Whatever Chords & Tabs

 

Yeah Whatever Chords & Tabs

Splender Chords & Tabs

Version: 1 Type: Bass Tab 0 ratings
1 star 2 stars 3 stars 4 stars 5 stars
comments

Yeah Whatever Bass Tab

Song:Yeah Whatever
Band:Splendor
Album:?? (do they have one?)
Tabbed By:betrnpippi

I couldnt find this tab on the net anywhere so i tabbed it out. Its realy 
easy mostly the roots of the guitar.

Tuning:EADG

Intro:

G--------------------------------------
D-----------------------5--------------
A--6---3-------6---3--------6---3-\10-- play 1x
E----------3----------3----------------

Verse 1: "And your primitive..."

G------------------------------------------------------------
D------------------------------------------------------------
A--6---3----------------6---3-----------------6---3---------- play 1x
E----------3--3--3-3-4----------3---3--3-3-4----------3-33-4-

Pre-Chorus "You sit all alone....."

G--------------------------------------------------
D--------------------------------------------------
A--------------------------------------------------  play 1x
E--66-------44-------66-------44-------33-------44-

Chorus "Yeah Whatever makes you happy...."

G------------------------------------------------------------------
D------------------------------------------------------------------
A--6-6-6-6\8-8-8-8-----------------6-6-6-6\8-8-8-8-----------------
E------------------3-3-3-3/1-1-1-1-----------------3-3-3-3/1-1-1-1-

Chorus 'continued

G------------------------------------------------
D------------------------------------------------
A--6-6-6-6\8-8-8-8------------------------------- play 1x
E------------------3-3-3-3/1-1-1-1--8-8-8-8-8--4-

Pre-2nd Verse (they play this right before he starts singing the 2nd verse)

G---------5-------------------5----
D-------------5--------------------
A--6---3---------------6---3----10- play 1x
E----------3----3-3-4--------------

2nd Verse "And your paranoid...."

G-----------5------------------------------5----------------------
D--------------------------------------------------------5--5-----
A--6-6-6--3--3-3h5-----------------6-6-6--3--3-3h5--------------5-
E------------------3-3-3--3--3-3-4-----------------3-3-3--3---3---

2nd Verse 'continued
[ Tab from: http://www.guitartabs.cc/tabs/s/splender/yeah_whatever_btab.html ]
G------------------------------
D------------------------------
A--6-6-6--3-3-3-3h5------------ play 1x
E-------------------3-3-3-3-34-

Pre-Chorus "You sit by the phone....."

G--------------------------------------------------
D--------------------------------------------------
A--------------------------------------------------  play 1x
E--66-------44-------66-------44-------33-------44-

Chorus "Yeah Wahtever makes you happy...."

G------------------------------------------------------------------
D------------------------------------------------------------------
A--6-6-6-6\8-8-8-8-----------------6-6-6-6\8-8-8-8-----------------
E------------------3-3-3-3/1-1-1-1-----------------3-3-3-3/1-1-1-1-

Chorus 'continued

G------------------------------------------------------
D------------------------------------------------------
A--6-6-6-6\8-8-8-8------------------------------------- play 1x
E------------------3-3-3-3/1-1-1-1--8-8-8-8-8--4-4-4-4-

Interlude "damned if you do...."

G------------------------------
D------------------------------
A------------------------------ play 4x
E--8-8-8-8-8-8-8-4-4-4-4-4-4-4-

Pre-Chorus "You must be aware...."

G--------------------------------------------------------------------------
D--------------------------------------------------------------------------
A-------------------------------------------------------------------------- 
play 1x
E--66--6-6--44--4-4--66--6-6--44--4-4--33333333-4444444--33333333-44444444-

Chorus

G------------------------------------------------------------------
D------------------------------------------------------------------
A--6-6-6-6\8-8-8-8-----------------6-6-6-6\8-8-8-8----------------- play 8x
E------------------3-3-3-3/1-1-1-1-----------------3-3-3-3/1-1-1-1-

Outro

G------------------------------------
D------------------------------------
A------------------------------------ play 1x
E--8-8-8-8-8-4-4-4-4-4--8-8-8-8-8--4-

YAY!! now wasnt that easy? this is a very catchy and fun song to play.

l8a e-mail me for any reason at: gdrls@juno.com
Comments