Splender - I Think God Can Explain Chords & Tabs

 

I Think God Can Explain Chords & Tabs

Splender Chords & Tabs

Version: 2 Type: Tab 0 ratings
1 star 2 stars 3 stars 4 stars 5 stars
comments

I Think God Can Explain Tab

   
Couldn't find many tabs to this song, and none of them sounded right, so I tabbed it myself. 

!!!CAPO 3rd FRET!!!
I tabbed it with noraml fret #'s, so anything with a 3 is open. 

Intro- Guitar 1
e|------------------------------------------------------------|
B|--6-----66----6-----6h8p6---6-----66---6------6h8p6---3h4p3-|
G|----3-----------3-------------3----------3------------------|
D|------3-----------3-------------3----------3----------------|
A|------------------------------------------------------------|
E|------------------------------------------------------------|
[ Tab from: http://www.guitartabs.cc/tabs/s/splender/i_think_god_can_explain_tab_ver_2.html ]
Verse:
         C              Em              C           Em D/F# G
e|-3--3--3333-3-3--0--0--0000-0-0--3--3--3333-3-3----0--5--6-| 
B|-4--4--4444-4-4--0--0--0000-0-0--4--4--4444-4-4----0--6--3-| 
G|-3--3--3333-3-3--0--0--0000-0-0--3--3--3333-3-3----0--5--3-|
D|-5--5--5555-5-5--5--5--5555-5-5--5--5--5555-5-5----5--3--3-|
A|-6--6--6666-6-6--5--5--5555-5-5--6--6--6666-6-6----5--3--5-|
E|-----------------0--0--0000-0-0--------------------0--5--6-|


Chorus:

   C   C#  G
e|-3-|-3-|-6-| 
B|-4-|-6-|-3-| 
G|-3-|-3-|-3-|
D|-5-|-5-|-3-|
A|-6-|-6-|-5-|

Then just strum Em in the background until this:

C# C Em C#  G

Then play the Chrous again, strumming C# afterward, then the little part played at the end is just C# C Em C#  G with some slow strumming up then down.
Comments