Splender - I Think God Can Explain Chords & Tabs

 

I Think God Can Explain Chords & Tabs

Splender Chords & Tabs

Version: 1 Type: Tab 0 ratings
1 star 2 stars 3 stars 4 stars 5 stars
comments

I Think God Can Explain Tab

   
Splender, I think god can explain.
Tabbed by britton,britlikesbillie@yahoo.com.
  
Submitted by: Britton Go
E-mail me at britlikesbillie@yahoo.com for suggestions and comments
Artist: Splender
Song: I think God can explain

These are the exact chords to the song... the chords are pretty hard to play but they sound good
and I only named these chords according to its basic name although it ain't

For the exact timing of the parts of the song especially the strumming and plucking... 
just figure it out on the tape okay?
Chords involved:   
       F         G      Am       C       D      Bb   
      E-3       E-3     E-3     E-3     E-3     E-3    
      B-1       B-1     B-1     B-1     B-1     B-1   These are my homemade chords which should
      G-2       G-0     G-0     G-0     G-2     G-2   used troughout the song 
      D-1       D-0     D-2     D-2     D-0     D-3
      A-3       A-2     A-X     A-3     A-X     A-1
      E-1       E-3     E-X     E-X     E-X     E-X

Intro: While guitar one does Hand Plucking intro...Guitar two does the strumming...
          
    Guitar One
E-3--3-3---3H5-3--3--3-3---3H5--3--0H1--0---
B--1----1----------1----1-----------------0-
G---2----2----------2----2------------------
D-------------------------------------------
A------0---------------0--------------------
E-1---------------1-------------------------
        
    Guitar Two: F-G-A played twice

Verse One: 

Play the entire thing twice
Guitar one and two: F-G-A-F-G-(A-G-C)<<[ Tab from: http://www.guitartabs.cc/tabs/s/splender/i_think_god_can_explain_tab.html ]
        D-G-C- Here's the tricky part....
while guitar one plays the C chord... guitar two suddenly slips a plucking riff

E-----------3------3--3------
B---------1------1----1------
G-------0------0------0------
D-0-2-3------2--------0------
A----------------------------
E----------------------------

Repeat Intro 

Verse Two:

F-G-A-F-G-(A-G-C)

Then guitar one plays: F-G-A 

while guitar two plucks:        
E---------5---------------5-----------------7-----8-----7------5-----
B-----8-----8---8-----8----8---8------5---5---5-----5-----5------5---
G---5---5-----5-----5---5----5------5---5-------5-----5-----5------5-
D-7---------------7---------------7----------------------------------
A--------------------------------------------------------------------
E--------------------------------------------------------------------

then altogether play: F-G-(A-G-C)

then do chorus:

then bridge: Bb - C repeatedly till the beat comes...
both guitars play:  
Downstroke everthing okay?
E--3---3---3---3----
B--1---1---1---1----
G--0---0---0---0----    then play the Bb in an increasing volume done by palm mute to full strum
D--3---2---0---3----
A--------------2----
E-------------------

play chorus

other guitar plays the lead simultaneously while the other plays the chords to the chorus
E-3--1---0----------------------------------------------------
B----------3--3--3pull-up one step high then down3-----1---1--
G--------------------------------------------------------2----
D-------------------------------------------------------------
A-------------------------------------------------------------
E-------------------------------------------------------------

*the pull up then down creates a dramatic shift of note instead of the regular hammering

Well that's it for now...hope you guys like this...
I recommended that you guys use reverb and chorus effects for closeness to the song
remember that when it comes to plucking...let the note ring and sustain by itself  

:: Ultimate Guitar Archive :: 
http://www.ultimate-guitar.com 



Comments