Spitalfield - What Were You Thinking Chords & Tabs

 

What Were You Thinking Chords & Tabs

Spitalfield Chords & Tabs

Version: 1 Type: Bass Tab

What Were You Thinking Bass Tab

Song: What Were You Thinking
Album: Stop Doing Bad Things
Band: Spitalfield
Tabber: Calum Neil (afirock74@hotmail.com)
Tuning: Drop d

Intro:
G|---------------------|
D|---------------------|
A|---------------------|
d|-4-4--0-0--3-3--0-0--|

Verse:
G|-----------------------------------------------|
D|------------------------------------------7-7--|
A|-0--0--0--0--0--0--0h2-------------------0-0---|
d|-----------------------4--4--4--4--4--4--------|
[ Tab from: http://www.guitartabs.cc/tabs/s/spitalfield/what_were_you_thinking_btab.html ]
Pre-Chorus:
G|-----------------------------------------------------------------------------------|
D|----------------------------------4-4-4-2-2-2-0------------------------------------|
A|-----------------------------------------------------------------------------------| 
d|--0-0-0-0-0--2-2-2-2-2--4-4-4-4-4----------------0-0-0-0-0--2-2-2-2-2--0-0-0-0-0-0-|

Chorus (1st Part):
G|-------------------------------------------------|
D|----------------------------------7--------------|
A|--------------------------9-9-9-9---5-5-5-5-5h7--|
d|--7-7-7-7-7--9-9-9-9-9-9-------------------------|

Chorus (2nd Part):
G|-----------------------------------------------|
D|----------------------------------7------------|
A|--------------------------9-9-9-9---5-5-4-2-5--|
d|--7-7-7-7-7--9-9-9-9-9-9-----------------------|

Outro:
G|---------------------------|
D|---------------------------|
A|---------------------------|
d|-0~~~~-4-4--0-0--3-3--0-0--|