Spitalfield - Those Days You Felt Alive Chords & Tabs

 

Those Days You Felt Alive Chords & Tabs

Spitalfield Chords & Tabs

Version: 1 Type: Bass Tab 0 ratings
1 star 2 stars 3 stars 4 stars 5 stars
comments

Those Days You Felt Alive Bass Tab

Tabbed By : marioq
e-mail: lonely_guy91@hotmail.com 

Tuning: Standard EADGBE
*=let ring
Intro:
G|---------------------------------------------------------------------------|
D|---------------------------------------------------------------------------|
A|---------------------------------------------------------------------------|
E|6666*--4444*---------------------------------------------------------------|

G|---------------------------------------------------------------------------|
D|-------------------------444444-66-----------------------------------------|
A|-------4-------------------------------------------------------------------|
E|66-4-6---2222-4444-(x3)----------------------------------------------------|

G|---------------------------------------------------------------------------|
D|-------------------------444444-666666-------------------------------------|
A|-------4-------------------------------------------------------------------|
E|66-4-6---2222-4444-(x3)----------------------------------------------------|
silence as guitar plays alone and lead into verse
verse:
G|----------------------------------------------------------------------------|
D|------2/4-3------------1---3h4----------------------------------------------|
A|11111-------4h6----------4--------------------------------------------------|
E|----------------22222-------------------------------------------------------|
and ill go...
(as many times necessary)
pre-chorus:
G|---------------------------------------------------------------------------|
D|---------------------------------------------------------------------------|
A|4-4-3h4p3-4--6-6h8-----------------6-6h8-----------------------------------|
E|-------------------6-9--6-4h6-6/2--------6h9-------------------------------|
i wont let you go...
G|---------------------------------------------------------------------------|
D|---------------------------------------------------------------------------|
A|4-4-3h4p3-4--6-6h8---------------------------------------------------------|
E|-------------------6-9--6-4h6-6/2---2-1h222-2-4----------------------------|
[ Tab from: http://www.guitartabs.cc/tabs/s/spitalfield/those_days_you_felt_alive_btab.html ]
chorus:
G|---------------------------------------------------------------------------|
D|-----------6666666---------------------------------------------------------|
A|333-444--------------------------------------------------------------------|
E|---------------------(x2)----2-4--4-6-(x2)---------------------------------|
i think i know what....        go and change it
do that twice then:
G|------------33333----------------------------------------------------------|
D|333-444-666----------------------------------------------------------------|
A|---------------------------------------------------------------------------|
E|---------------------------------------------------------------------------|
go an change it 
(x2)
guitar leads into verse again

verse (as many times needed)
pre-chorus 
chorus

interlude:
G|---------------------------------------------------------------------------|
D|---------------------------------------------------------------------------|
A|4*---6*--------------------------------------------------------------------|
E|--------6*--2*-2------5/12/0-----------------------------------------------|

G|-----------------------------------------------------------------------------|
D|------------------3333-1h4-3-1h3p1-------------------------------------------|
A|4443h444-6666666-------------------------------------------------------------|
E|------------------------------------222222222--------------------------------|
(x2)

G|---------------------------------------------------------------------------|
D|3-4-6*---------------------------------------------------------------------|
A|---------------------------------------------------------------------------|
E|---------------------------------------------------------------------------|
lead into final chorus:
G|---------------------------------------------------------------------------|
D|---------------------------------------------------------------------------|
A|---------------------------------------------------------------------------|
E|222-444-444-666------------------------------------------------------------|
i think i know what you wont tell me....
(x2)

chorus
Comments