Spitalfield - Tampa Bum Blues Chords & Tabs

 

Tampa Bum Blues Chords & Tabs

Spitalfield Chords & Tabs

Version: 1 Type: Bass Tab

Tampa Bum Blues Bass Tab

Song: Tampa Bum Blues
Album: Stop Doing Bad Things
Band: Spitalfield
Tabber: Calum Neil (afirock74@hotmail.com)
Tuning: Drop d

Intro:
G|------------------------------------------------------|
D|------------------------------------------------------|
A|-0-0-0-------0-0-0-----------------------0-0-0-0-0-0--|
d|-------5-5-5--------0-0-0-0-0-0--4-4-5-5--------------|
[ Tab from: http://www.guitartabs.cc/tabs/s/spitalfield/tampa_bum_blues_btab.html ]
Verse:
G|-------------------------------------------|
D|-------------------------------------------|
A|-0-0-0-------0-0-0--------------------0-0--|
d|-------5-5-5--------0-0-0--5-5-4-4-5-5-----|

Pre-Chorus:
G|-----------|
D|-----------|
A|-0-0-------|
d|------3-3--|

Chorus:
G|--------------------------------------|
D|--------------------------------------|
A|-0-0-0-0-0-0-0-0-0--------------------|
d|-------------------4-4-4-5-5-5-5-5-5--|

Bridge:
G|------------------------------|
D|------------------------------|
A|----------0-0-0----5----------|
d|-4-5-5-5--------5-4--0-0-0-0--|

Outro:
G|----------|-------|
D|----------|-------|
A|-0-0------|-5-5p3-|
d|------3-3-|-------|