Spitalfield - Stolen From Some Great Writer Chords & Tabs

 

Stolen From Some Great Writer Chords & Tabs

Spitalfield Chords & Tabs

Version: 1 Type: Tab 0 ratings
1 star 2 stars 3 stars 4 stars 5 stars
comments

Stolen From Some Great Writer Tab

E|------------------------------------||
B|----7-7-7-7-7-7-7-7-----------------||
G|---7-7-7-7-9-9-9-9--7-7-7-7-7-9-7---||
D|-------------------9-9-9-9-9--------|| x2
A|------------------------------------||
E|------------------------------------||


E|-----------------------------||
B|-----------------------------||
G|-----------------------------||
D|---9-----12-----5-----2------|| x2
A|---9-x8--12-x8--5-x8--2-x8---||
E|---7-----10-----3-----0------||


E|----------------------------------------------------------------------|
B|----------------------------------------------------------------------|
G|----------------------------------------------------------------------|
D|---99--99--777755--55--777799--99--777799--99--777755--55--777755--55-|
A|---99--99--777755--55--777799--99--777799--99--777755--55--777755--55-|
E|---77--77--555533--33--555577--77--555577--77--555533--33--555533--33-|


E|------------------------------||
B|------------------------------||
G|------------------------------||
D|--777799--99--777799--99--97--||
A|--777799--99--777799--99--97--||
E|--555577--77--555577--77--75--||


E|------------------------------||
B|------------------------------||
G|------------------------------||
D|---5------9-----11-----12-----|| x2
A|---5-x16--9-x4--11-x4--12-x8--||
E|---3------7-----9------10-----||

E|-----------------------------------------------------------||
B|-----------------------------------------------------------||
G|----------------------------------------------11111112119--||
D|---222445555--9-----7-----9-----11-----12-----11111112119--|| x2
A|---222445555--9-x4--7-x4--9-x4--11-x4--12-x4--9-9-9-109-7--||
E|---000223333--7-----5-----7-----9------10------------------||


E|---------------------------------------------------||
B|---------------------------------------------------||
G|---11----11----------------------------------------||
D|---11-12-11-12-141414--17171717--17171717--171717--||
A|---9--12-9--12-141414--17171717--17171717--171717--||
E|------10----10-121212--15151515--15151515--151515--||


E|----------------------------------------------------------------------|
B|----------------------------------------------------------------------|
G|----------------------------------------------------------------------|
D|---99--99--777755--55--777799--99--777799--99--777755--55--777755--55-|
A|---99--99--777755--55--777799--99--777799--99--777755--55--777755--55-|
E|---77--77--555533--33--555577--77--555577--77--555533--33--555533--33-|

[ Tab from: http://www.guitartabs.cc/tabs/s/spitalfield/stolen_from_some_great_writer_tab.html ]
E|------------------------------||
B|------------------------------||
G|------------------------------||
D|--777799--99--777799--99--97--||
A|--777799--99--777799--99--97--||
E|--555577--77--555577--77--75--||


E|------------------------------||
B|------------------------------||
G|------------------------------||
D|---5------9-----11-----12-----|| x2
A|---5-x16--9-x4--11-x4--12-x8--||
E|---3------7-----9------10-----||


E|-----------------------------------------------------------||
B|-----------------------------------------------------------||
G|----------------------------------------------11111112119--||
D|---222445555--9-----7-----9-----11-----12-----11111112119--|| x2
A|---222445555--9-x4--7-x4--9-x4--11-x4--12-x4--9-9-9-109-7--||
E|---000223333--7-----5-----7-----9------10------------------||


E|---------------------------------------------------||
B|---------------------------------------------------||
G|---11----11----------------------------------------||
D|---11-12-11-12-141414--17171717--17171717--171717--||
A|---9--12-9--12-141414--17171717--17171717--171717--||
E|------10----10-121212--15151515--15151515--151515--||


E|-------------------------------------||
B|-------------------------------------||
G|---11----11--------------------------||
D|---11-12-11-12-141414--17171717--17--||
A|---9--12-9--12-141414--17171717--17--||
E|------10----10-121212--15151515--15--||


E|--------------------------------------------------------------||
B|---7-8-7-8-7-8-7-5-7-5-7-5-7-5-3-2-3-2-3-2-3-2---2---2-2---0--||
G|-----------------------------------------------2---2-----2----||
D|--------------------------------------------------------------|| x4
A|--------------------------------------------------------------||
E|--------------------------------------------------------------||


E|----------------------------------------------------------||
B|-----7---7-7--7-10-7-10-10--10-14-10-14-14--7-10-7-10-10--||
G|---7---7--------------------------------------------------||
D|----------------------------------------------------------|| x2
A|----------------------------------------------------------||
E|----------------------------------------------------------||


E|-----------------------------------------------------------||
B|-----------------------------------------------------------||
G|----------------------------------------------11111112119--||
D|---222445555--9-----7-----9-----11-----12-----11111112119--|| x2
A|---222445555--9-x4--7-x4--9-x4--11-x4--12-x4--9-9-9-109-7--||
E|---000223333--7-----5-----7-----9------10------------------||


E|-----------------------------------------||
B|-----------------------------------------||
G|---11----11------------------------------||
D|---11-12-11-12-141414--55555555--22222222|| x4
A|---9--12-9--12-141414--55555555--22222222||
E|------10----10-121212--33333333--00000000||
Comments