Spitalfield - So I Heard You Joined A Convent Chords & Tabs

 

So I Heard You Joined A Convent Chords & Tabs

Spitalfield Chords & Tabs

Version: 1 Type: Bass Tab 0 ratings
1 star 2 stars 3 stars 4 stars 5 stars
comments

So I Heard You Joined A Convent Bass Tab

   
Spitalfield
"So I Heard You Joined A Convent" 
Tabbed By = Dr. Sticky Juice 7/6/05

This should be pretty accurate, however Spitalfield's bassist
is an animal.

Tuning: Standard(E,A,D,G)

Intro (come in after about two seconds)
G ------------------------|
D ----0----02----024-0-45-| X4 (first two alone)
A -023--023---023---2-2---|
E ------------------------|

Verse One

G ----------------------------------|
D --------------00------------------|
A -33333-33-33-3--------------------|
E ------------------00000-00-00-000-|

G ----------------------------------|
D --------------00-22222-222-220----|
A -33333-33-33-3--------------------|
E ----------------------------------|   
  ________________________________     TWICE

G ----------------------------------|
D --------------00------------------|
A -33333-33-33-3--------------------|
E ------------------00000-00-00-000-|

G ----------------------------------|
D ----------------------------------|
A ----------------------------------|
E -3333333333333333-2222222222222222|
  ________________________________ 

rest and then the Pre Chorus (No vocals)
G ------------------------|
D ----0----02----024-0-45-| 
A -023--023---023---2-2---|
E ------------------------|

Chorus
G ----------22-----------------------------------------|
D -222(*3)-2----000(*3)-3-22---------02----------------| 
A --------------------------333(*3)-3---------555(*2)--|
E -------------------------------------333(*2)---------|

G --------------------------------|
D -222(*4)-000(*4)---------000(*2)| 
A -----------------333(*6)--------|
E --------------------------------|
  ________________________________   

Verse Two
[ Tab from: http://www.guitartabs.cc/tabs/s/spitalfield/so_i_heard_you_joined_a_convent_btab.html ]
G ----------------------------------|
D --------------00------------------|
A -33333-33-33-3--------------------|
E ------------------00000-00-00-000-|

G ----------------------------------|
D --------------00-22222-222-220----|
A -33333-33-33-3--------------------|
E ----------------------------------|   
  ________________________________     ONCE

G ----------------------------------|
D --------------00------------------|
A -33333-33-33-3--------------------|
E ------------------00000-00-00-000-|

G ----------------------------------|
D ----------------------------------|
A ----------------------------------|
E -3333333333333333-2222222222222222|
  ________________________________ 

rest and then the Pre Chorus (No vocals)
G ------------------------|
D ----0----02----024-0-45-| 
A -023--023---023---2-2---|
E ------------------------|

Chorus
G ----------22-----------------------------------------|
D -222(*3)-2----000(*3)-3-22---------02----------------| 
A --------------------------333(*3)-3---------555(*2)--|
E -------------------------------------333(*2)---------|

G --------------------------------|
D -222(*4)-000(*4)---------000(*2)| 
A -----------------333(*6)--------|
E --------------------------------|
  ________________________________ 

Bridge (first part rest then come in at 2:07)
G ---------------------|
D ----------02-222(*3)-| 
A -333(*4)-3-----------| x3
E ---------------------|
(4th measure)                      TWICE
G ----------------------------|
D -000(*4)--------------------| 
A --------333(*4)-------------| x1
E ----------------------------|

on the repeat of the chorus there might be some little 
variations

Ending (=Intro)
G ------------------------|
D ----0----02----024-0-45-|  
A -023--023---023---2-2---|
E ------------------------|
Comments