Spitalfield - I Love The Way She Said La Chords & Tabs

 

I Love The Way She Said La Chords & Tabs

Spitalfield Chords & Tabs

Version: 1 Type: Tab 0 ratings
1 star 2 stars 3 stars 4 stars 5 stars
comments

I Love The Way She Said La Tab

   
MK this is the 1st spitalfield tab on the site...here is
their site www.spitalfield.net...they are a pop/punk emoish band and are extremely
catchy, they are out of chicago illinois...enjoy the tab...any questions
email me, mj6stringpunk23@yahoo.com

well i tabbed some of this myself and got some help from a few others...

Intro first part(one guitar)
e|----------------|
B|----------------|
G|-5555-5555-5554-|
D|-5555-5555-5555-|	x1
A|-3333-3333-3333-|
E|----------------|



Intro Guitar 1 (rythym, two guitars come in here)
e|-----------------------------|
B|-----------------------------|
G|--------5-5555---------------|
D|-3-3333-5-5555-7-7777-5-5555-|	x8
A|-3-3333-3-3333-7-7777-5-5555-|
E|-1-1111--------5-5555-3-3333-|


Intro Guitar 2(lead)
e|----------------------|		|------------------|
B|----------------------|		|------------------|
G|-555-444-555-4--5h7p5-|		|----54----54------|
D|----------------------|	x4	|-555---555---5555-|	x4
A|----------------------|		|------------------|
E|----------------------|		|------------------|


[ Tab from: http://www.guitartabs.cc/tabs/s/spitalfield/i_love_the_way_she_said_la_tab.html ]
Verse
e|-------------------------------------------|
B|-------------------------------------------|
G|-4~---5~-------4-------5-------4-------5---|
D|-5~---5~-----5---5---5---5---5---5---5---5-|		x3
A|-3~---3~---3-------3-------3-------3-------|
E|-------------------------------------------|

On the fourth time, before the chorus, play it like this
e|--------------------------------------|
B|--------------------------------------|
G|-4~---5~-------4-------5----55555555--|
D|-5~---5~-----5---5---5---5--55555555--|		
A|-3~---3~---3-------3--------33333333--|
E|--------------------------------------|


Chorus
e|-------------------------------|
B|-------------------------------|
G|--------5-5555-xx5-xx5-xx5-xx5-|
D|-5-5555-5-5555-xx5-xx5-xx5-xx5-|	x4
A|-5-5555-3-3333-xx3-xx3-xx3-xx3-|
E|-3-3333------------------------|
x=mute



Chorus lead bit (this comes in while the ryhtym is playing the muted chords)
e|-------------------------|
B|-------------------------|
G|-5555-7777-9999-12121212-|
D|-------------------------|
A|-------------------------|
E|-------------------------|


After Chorus - same as Intro with 2 guitars


Outro rythym 
e|-----------------------------|
B|-----------------------------|
G|------5555-------------------|
D|-3333-5555-5-5-7777-5555-3-3-|	x2
A|-3333-3333-5-5-7777-5555-3-3-|
E|-1111------3-3-5555-3333-1-1-|

outro lead
e|------------------|
B|------------------|
G|----54----54------|
D|-555---555---5----|	x2
A|---------------7--|
E|------------------|

End on
G|-5-5------|
D|-5-5-5~---|
A|-5-5-5~---|
E|-----3~---|
Comments