Spitalfield - Future Is Now Chords & Tabs

 

Future Is Now Chords & Tabs

Spitalfield Chords & Tabs

Version: 1 Type: Bass Tab

Future Is Now Bass Tab

Song: The Future Is Now
Album: Stop Doing Bad Things
Band: Spitalfield
Tabber: Calum Neil (afirock74@hotmail.com)
Tuning: Drop d

Intro:
G|-------------------------------------------------------------------------------------|
D|-------------------------------------------------------------------------------------|
A|-0-0-0-0--0-0-0-0-0--0--0-0-0-0--0-0-0-0-0--0--2-2-2-2-2--2-2-2-2-2------------------| 
d|---------------------------------------------------------------------5-5-5-5-5--5-5--|

Verse:
G|-------------------------------------------------------------------------------------|
D|-------------------------------------------------------------------------------------|
A|-0-0-0-0--0-0-0-0-0--0--0-0-0-0--0-0-0-0-0--0--2-2-2-2-2--2-2-2-2-2------------------| 
d|---------------------------------------------------------------------5-5-5-5-5--5-5--|

Chorus:
G|----------------------------------------------------------|
D|----------------------------------------------------------|
A|-5-5-5-5-5-5-5-5-5-5-5-5-5--7-7-7-7-7--10-10-10-----------| 
d|------------------------------------------------9-9--4-4--|
[ Tab from: http://www.guitartabs.cc/tabs/s/spitalfield/future_is_now_btab.html ]
Bridge:
G|-------------------------------------------------------------------2--
D|-4-----4----------------------------------------------------------4---
A|-5-----5------------2-2---5-------2-2---5-------2-2-0-2-2-0-2-2-0-----
d|----5-----5----9//-----------5-5-----------5-5------------------------

Bridge:
G|---------------------------|
D|---------------------------|
A|------------------------0--| 
d|-5-5-5-0-5-5-0-5-5-0-5-5---|

Outro:
G|-------------------------------------------------------------------------------------
D|-------------------------------------------------------------------------------------
A|-0-0-0-0--0-0-0-0-0--0--0-0-0-0--0-0-0-0-0--0--2-2-2-2-2--2-2-2-2-2------------------
d|---------------------------------------------------------------------5-5-5-5-5--5-5--

G|---------------------------------------------------------------------------------|
D|---------------------------------------------------------------------------------|
A|-0-0-0-0--0-0-0-0-0--0--2-2-2-2-2--2-2-2-2-2-------------------------------------| 
d|---------------------------------------------4-4-4-4--4-4-4-4-4--5-5-5-5-5--5-5--|