Spirtualized - Come Together Chords & Tabs

 

Come Together Chords & Tabs

Spirtualized Chords & Tabs

Version: 1 Type: Tab 0 ratings
1 star 2 stars 3 stars 4 stars 5 stars
comments

Come Together Tab


 spiritualized-come together

 main riff
 
 e---|| ------------------------------- ||
 b---|| ------------------------------- ||
 g---||.-------------------------------.||
 d-7-||.-7--7--7-8-9-10--10-10-10-9-8-7.||
 a-7-|| -7--7--7-8-9-10--10-10-10-9-8-7 ||
 e-5-|| -5--5--5-6-7-8---8--8--8--7-6-5 ||
  
 lick
[ Tab from: http://www.guitartabs.cc/tabs/s/spirtualized/come_together_tab.html ]
 e---------------------------------5--
 b------------------------5-----------
 g--7b--r7--5----5--7--5-----7--5-----
 d------------7-----------------------
 a------------------------------------
 e------------------------------------

 thats about it-just keep repeating both sections
 throughout the song

 tabbed by dangerous dave
 dangerousdac@yahoo.co.uk
Comments