Spinfire - Weak Nights Chords & Tabs

 

Weak Nights Chords & Tabs

Spinfire Chords & Tabs

Version: 1 Type: Tab 0 ratings
1 star 2 stars 3 stars 4 stars 5 stars
comments

Weak Nights Tab

   
Band:   Spinfire
Song:   Weak Nights
CD:     Unreleashed Track


E5(VIII)  -X-7-9-9-X-X 
DM        -X-5-7-7-X-X 
CM        -X-3-5-5-X-X

intro:
--------------------------------------|
--------------------------------------|
------7----4---2-2--------3---4---2-2-|
----5------4---0-0-----0--0--4--0-0---|
--7--------5----------3--------5------|
--------------------------------------|

lay in bed awake just wishin you were here, 
I can't sleep at all. 
We both know only time can tell what can become, 
Of what you know I really want.

I lay in bed awake just wishin you were here, 
I can't sleep at all. 
We both know only time can tell what can become, 
Of what you know I really want, yeah baby.
[ Tab from: http://www.guitartabs.cc/tabs/s/spinfire/weak_nights_tab.html ]
JUST STRUM THE E5 AND DM ONCE THEN SEVERAL STRUMS ON CM, LISTENING TO THE SONG AND
YOULL SEE WHAT I MEAN.
Chorus: 
E5(VIII)        DM                CM
    I wish that this could last forever, 
E5(VIII)        DM             CM
But I need for you to want it to. 
E5(VIII)    DM             CM
How can we make it till tomorrow, 

If you think today is the end, so come on.  <--ON THIS ITS JUST EVAN CLEAN PLAYING
THIS LITTLE RIFF
E|-------------------------------------|
A|--7--------7----------7--------------|
D|----9----9----9----9------9----------|
G|-------9---------9--------------9~---|

Yeah yeah, 
JUST PLAY THE INTRO RIFF UNDER THE VERSE, PLAY CHORUS AGAIN THEN IT COMES TO THE
BRIDGE WHICH I HAVENT FIGURED OUT YET.

I lay in bed awake just hopin you'll come back, 
An hour passes by with no call at all 
I try to figure out where I have gone wrong, 
Hopin' you feel the same about me, and maybe babe

Chorus


tabbed by ~Marjolein Peters~
(www.joker256.tk / www.SteelMusic.tk)
Comments