Spinfire - I Do Chords & Tabs

 

I Do Chords & Tabs

Spinfire Chords & Tabs

Version: 1 Type: Tab 0 ratings
1 star 2 stars 3 stars 4 stars 5 stars
comments

I Do Tab

   
Band:  Spinfire
Song:  I DO
CD:    Unreleashed Track


Intro:
E|--------------------------------------------------|
B|--------------------------------------------------|
G|---------4-----------4-----------4-----------4--6-|
D|---0---0-------0---0-------0---0-------0---0------|
A|-5---5-------5---5-------5---5-------5---5--------|
e|--------------------------------------------------|


E|-----5-------5-----2-------2-----5-------5-----7-------7-|
B|-----5-------5-----2-------2-----5-------5-----7-------7-|
G|-7-7-7-7-7-7-7-4-4-4-4-4-4-4-7-7-7-7-7-7-7-9-9-9-9-9-9-9-|
D|-7-7-7-7-7-7-7-4-4-4-4-4-4-4-7-7-7-7-7-7-7-9-9-9-9-9-9-9-|
A|-5-5-5-5-5-5-5-2-2-2-2-2-2-2-5-5-5-5-5-5-5-7-7-7-7-7-7-7-|
e|---------------------------------------------------------|
I just woke up this morning
For the first day without you

GUITAR2:
E|-----------|
B|-----------|
G|-----7---9-|
D|---7-------|
A|-5-----5---|
e|-----------|

E|-----5-------5-----2-------x-x-x-x-5-7-------9-----------9--|
B|-----5-------5-----2-------x-x-x-x-5-7-------9-----------9--|
G|-7-7-7-7-7-7-7-4-4-4-4-4-4-x-x-x-x-7-9-11-11-11-11-11-11-11-|
D|-7-7-7-7-7-7-7-4-4-4-4-4-4-x-x-x-x-7-9-11-11-11-11-11-11-11-|
A|-5-5-5-5-5-5-5-2-2-2-2-2-2-x-x-x-x-5-7-9--9--9--9--9--9--9--|
e|------------------------------------------------------------|
And now I have to figure out
What I'm gonna do

GUITAR2:
E|------------|
B|---11-------|
G|-------11---|
D|-9--------9-|
A|------------|
e|------------|

Chorus:
E|---------------------7-----7---------------------7-----7-|
B|---------------------7-----7---------------------7-----7-|
G|-7-7-x-4-4-x-7-7-7-x-9-9-9-9-7-7-x-4-4-x-7-7-7-x-9-9-9-9-|
D|-7-7-x-4-4-x-7-7-7-x-9-9-9-9-7-7-x-4-4-x-7-7-7-x-9-9-9-9-|
A|-5-5-x-2-2-x-5-5-5-x-7-7-7-7-5-5-x-2-2-x-5-5-5-x-7-7-7-7-|
e|---------------------------------------------------------|
It's alright for everything to be sad
It's okay for you and me to be bad

E|---------------------7-----7-----------------5-x-7-|
B|---------------------7-----7-----------------5-x-7-|
G|-7-7-x-4-4-x-7-7-7-x-9-9-9-9-7-7-7-4-4-4-7-7-7-x-9-|
D|-7-7-x-4-4-x-7-7-7-x-9-9-9-9-7-7-7-4-4-4-7-7-7-x-9-|
A|-5-5-x-2-2-x-5-5-5-x-7-7-7-7-5-5-5-2-2-2-5-5-5-x-7-|
e|---------------------------------------------------|
You don't think that we can make it through
But I do
I do

GUITAR2:
E|-------------|
B|-------------|
G|---------6b-4|
D|---0---0-----|
A|-5---5-------|
e|-------------|

E|-----5-------5-----2-------2-----5-------5-----7-------7-|
B|-----5-------5-----2-------2-----5-------5-----7-------7-|
G|-7-7-7-7-7-7-7-4-4-4-4-4-4-4-7-7-7-7-7-7-7-9-9-9-9-9-9-9-|
D|-7-7-7-7-7-7-7-4-4-4-4-4-4-4-7-7-7-7-7-7-7-9-9-9-9-9-9-9-|
A|-5-5-5-5-5-5-5-2-2-2-2-2-2-2-5-5-5-5-5-5-5-7-7-7-7-7-7-7-|
e|---------------------------------------------------------|

GUITAR2:
E|-------------|
B|-------------|
G|-------------|
D|---0---0---0-|
A|-5---5---5---|
e|-------------|

E|-----5-------5-----2-------2-----5-------5-----7-------7-|
B|-----5-------5-----2-------2-----5-------5-----7-------7-|
G|-7-7-7-7-7-7-7-4-4-4-4-4-4-4-7-7-7-7-7-7-7-9-9-9-9-9-9-9-|
D|-7-7-7-7-7-7-7-4-4-4-4-4-4-4-7-7-7-7-7-7-7-9-9-9-9-9-9-9-|
A|-5-5-5-5-5-5-5-2-2-2-2-2-2-2-5-5-5-5-5-5-5-7-7-7-7-7-7-7-|
e|---------------------------------------------------------|
I just woke up this morning
It's been three weeks without you

E|-----5-------5-----2-------x-x-x-x-5-7-------9-----------9--|
B|-----5-------5-----2-------x-x-x-x-5-7-------9-----------9--|
G|-7-7-7-7-7-7-7-4-4-4-4-4-4-x-x-x-x-7-9-11-11-11-11-11-11-11-|
D|-7-7-7-7-7-7-7-4-4-4-4-4-4-x-x-x-x-7-9-11-11-11-11-11-11-11-|
A|-5-5-5-5-5-5-5-2-2-2-2-2-2-x-x-x-x-5-7-9--9--9--9--9--9--9--|
e|------------------------------------------------------------|
And now I have to figure out
How to make it through

GUITAR2:
E|--------------------------------------| (x4)
B|--------------------------------------|
G|--------------------------------------|
D|-------------------10~----------------|
A|-9/11-12-11-9-11-9-----9/11-12-11-13~-|
e|--------------------------------------|
[ Tab from: http://www.guitartabs.cc/tabs/s/spinfire/i_do_tab.html ]
E|---------------------7-----7---------------------7-----7-|
B|---------------------7-----7---------------------7-----7-|
G|-7-7-x-4-4-x-7-7-7-x-9-9-9-9-7-7-x-4-4-x-7-7-7-x-9-9-9-9-|
D|-7-7-x-4-4-x-7-7-7-x-9-9-9-9-7-7-x-4-4-x-7-7-7-x-9-9-9-9-|
A|-5-5-x-2-2-x-5-5-5-x-7-7-7-7-5-5-x-2-2-x-5-5-5-x-7-7-7-7-|
e|---------------------------------------------------------|
It's alright for everything to be bad
Its okay for you and me to be sad

E|---------------------7-----7-----------------5-x-7-7-7-7--|
B|---------------------7-----7-----------------5-x-7-7-7-7--|
G|-7-7-x-4-4-x-7-7-7-x-9-9-9-9-7-7-7-4-4-4-7-7-7-x-9-9-9-9--|
D|-7-7-x-4-4-x-7-7-7-x-9-9-9-9-7-7-7-4-4-4-7-7-7-x-9-9-9-9--|
A|-5-5-x-2-2-x-5-5-5-x-7-7-7-7-5-5-5-2-2-2-5-5-5-x-7-7-7-7--|
e|----------------------------------------------------------|
You dont think that we can make it through
But I do
I do

E|---------------------------------------------------------------|
B|-------------9/11-11h12-9~-------------12b12p11-9~-------------|
G|-4/7/9/11/13---------------4/7/9/11/13-------------4/7/9/11/13-|
D|-4/7/9/11/13---------------4/7/9/11/13-------------4/7/9/11/13-|
A|-2/5/7/ 9/13---------------2/5/7/ 9/13-------------4/7/9/11/13-|
e|---------------------------------------------------------------|

E|----------------------------------|
B|-11b11h12-9~----------------------|
G|-------------4/7/9/11/13/14/15/16-|
D|-------------4/7/9/11/13/14/15/16-|
A|-------------2/5/7/9-/11/12/13/14-|
e|----------------------------------|

Solo:
E|---------------------------------------------------------|
B|-9h11p9---------------11h12p11-9-9h11p9-9-11~14b-12------|
G|-------11-11-13-11-14~-----------------------------14-12-|
D|---------------------------------------------------------|
A|---------------------------------------------------------|
e|---------------------------------------------------------|

E|--------------------------------------------------------|
B|--------------------------------------------------------|
G|---------10-----10-----10-----10-7----------------------|
D|-14-10h12--10h12--10h12--10h12----5--5--5--5--5-5-7-7/9~|
A|--------------------------------------------------------|
e|--------------------------------------------------------|


Cont.Solo:
E|-----------------|
B|-----------------|
G|-12p10--10-7h9-5~|
D|------12---------|
A|-----------------|
e|-----------------|

E|-5-5-7|
B|-5-5-7|
G|-7-7-9|
D|-7-7-9|
A|-5-5-7|
e|------|
It's alright for everything to be bad
It's okay for you and me to be sad

GUITAR2:
E|------------|
B|---11-------|
G|-------11---|
D|-9--------9-|
A|------------|
e|------------|

E|------------------------------------------------------|
B|------------------------------------------------------|
G|-7-7-7-4-4-4-7-7-7-9-9-9-9-7-7-7-4-4-4-7-7-7-9-9-9-9--|
D|-7-7-7-4-4-4-7-7-7-9-9-9-9-7-7-7-4-4-4-7-7-7-9-9-9-9--|
A|-5-5-5-2-2-2-5-5-5-7-7-7-7-5-5-5-2-2-2-5-5-5-7-7-7-7--|
E|------------------------------------------------------|
It's alright for everything to be sad
You don't think that we can make it through
But I do

GUITAR2:
E|--------------------------------------| (x4)
B|--------------------------------------|
G|--------------------------------------|
D|-------------------10~----------------|
A|-9/11-12-11-9-11-9-----9/11-12-11-13~-|
e|--------------------------------------|

E|---------------------7-----7---------------------7-----7-|
B|---------------------7-----7---------------------7-----7-|
G|-7-7-x-4-4-x-7-7-7-x-9-9-9-9-7-7-x-4-4-x-7-7-7-x-9-9-9-9-|
D|-7-7-x-4-4-x-7-7-7-x-9-9-9-9-7-7-x-4-4-x-7-7-7-x-9-9-9-9-|
A|-5-5-x-2-2-x-5-5-5-x-7-7-7-7-5-5-x-2-2-x-5-5-5-x-7-7-7-7-|
E|---------------------------------------------------------|
Its's alright for everyhting to be bad
Its okay for you and me to be sad yea

E|---------------------7-----7---------------------7-7-7-7--|
B|---------------------7-----7---------------------7-7-7-7--|
G|-7-7-x-4-4-x-7-7-7-x-9-9-9-9-7-7-7-4-4-4-7-7-7-7-9-9-9-9--|
D|-7-7-x-4-4-x-7-7-7-x-9-9-9-9-7-7-7-4-4-4-7-7-7-7-9-9-9-9--|
A|-5-5-x-2-2-x-5-5-5-x-7-7-7-7-5-5-5-2-2-2-5-5-5-5-7-7-7-7--|
E|----------------------------------------------------------|
You don't think that we can make it through
But I do
I do

GUITAR2:
E|--------------------------------------| (x4)
B|--------------------------------------|
G|--------------------------------------|
D|-------------------10~----------------|
A|-9/11-12-11-9-11-9-----9/11-12-11-13~-|
e|--------------------------------------|

E|---------------------7-----7---------------------7-7-7-7--|  (x2)
B|---------------------7-----7---------------------7-7-7-7--|
G|-7-7-x-4-4-x-7-7-7-x-9-9-9-9-7-7-7-4-4-4-7-7-7-7-9-9-9-9--|
D|-7-7-x-4-4-x-7-7-7-x-9-9-9-9-7-7-7-4-4-4-7-7-7-7-9-9-9-9--|
A|-5-5-x-2-2-x-5-5-5-x-7-7-7-7-5-5-5-2-2-2-5-5-5-5-7-7-7-7--|
E|----------------------------------------------------------|        I do
Cause I, I do

Tabbed by ~Marjolein Peters~
(www.joker256.tk / www.SteelMusic.tk)
Comments